Search tabs:
Browse artists: 0-9 | A | B | C | D | E | F | G | H | I | J | K | L | M | N | O | P | Q | R | S | T | U | V | W | X | Y | Z
/ Rob Zombie / The Sinister Urge (2001) / House of 1000 Corpses bass tab

Artist: Rob Zombie
Track: House of 1000 Corpses
Album: The Sinister Urge
Tabber: bassist666slipknot
Tuning: EADG
The bit in the verse's  wen it slides from  A:-13/8-     im not sure bout so if u can find the correct bit i'll change it
enjoy


1st Verse Repeat x8
G--------------------
D--------------------
A--------------------
E--13/8-1-11-1-1

Pre Chorus
G--------
D--------
A--------
E11111

Chorus Repeat x4
G-----------------------------
D-----------------------------
A------------------------------
E1-1-1-4--3-4-3-4--4-3-4

After Chorus  Repeat till you thinks right
G---------------------
D----------------------
A----------------------
E1-11--1-11--1-11

Pre Verse
G----------------------------------------------------
D----------------------------------------------------
A----------------------------------------------------
E-1-1-1-1-----1-1-1-1----1-1-1-1---1-1-1-1

Key Board Bit    Play till you think it stops
G---------------------------------------------------
D---------------------------------------------------
A---------------------------------------------------
E1----------------------1------------------------1


Its My 3rd Tab plaease Rate it


Rob Zombie albums
2001 The Sinister Urge
1998 Hellbilly Deluxe
The Sinister Urge tabs
02Demon Speeding tabbass tab
07Feel So Numb tabbass tab
10Scum of the Earth tabbass tab
11House of 1000 Corpses tabbass tab

 

1