Search tabs:
Browse artists: 0-9 | A | B | C | D | E | F | G | H | I | J | K | L | M | N | O | P | Q | R | S | T | U | V | W | X | Y | Z
/ Sentenced / The Cold White Light (2002) / No One There bass tab

Tune down

D#||------------------|------------------|------------------|------------------|
A#||------------------|------------------|------------------|------------------|
F ||------------------|------------------|------------------|------------------|
C ||------------------|------------------|------------------|------------------|



------------------|------------------|------------------|------------------|
------------------|------------------|------------------|------------------|
------------------|------------------|------------------|------------------|
------------------|------------------|------------------|------------------|



--------------------|--------------------|--------------------|
--------------------|--------------------|--------------------|
--3------3----------|--3------3----------|--------------------|
--------------------|--------------------|--0------0----------|



--------------------|--------------------|--------------------|
--------------------|--------------------|--------------------|
--------------------|--3------3----------|--3------3----------|
--0------0----------|--------------------|--------------------|



--------------------|--------------------|--------------------|
--------------------|--------------------|--------------------|
--------------------|--5------5----------|--3------3----------|
--3------3----------|--------------------|--------------------|



--------------------|--------------------|--------------------|
--------------------|--------------------|--------------------|
--3------3----------|--------------------|--------------------|
--------------------|--3------3----------|--3------3----------|



--------------------|--------------------|--------------------|
--------------------|--------------------|--------------------|
--5------5----------|--5------5----------|--0------0----------|
--------------------|--------------------|--------------------|



-------------------|--------------------------|--------------------------|
-------------------|--------------------------|--------------------------|
--0----------------|--3--3--3--3--3--3--3--3--|--3--3--3--3--3--3--3--3--|
-------------------|--------------------------|--------------------------|



--------------------------|--------------------------|
--------------------------|--------------------------|
--------------------------|--------------------0--2--|
--0--0--0--0--0--0--0--0--|--0--0--0--0--0--0--------|



--------------------------|--------------------------|
--------------------------|--------------------------|
--3--3--3--3--3--3--3--3--|--3--3--3--3--3--3--3--3--|
--------------------------|--------------------------|



--------------------------|--------------------------|
--------------------------|--------------------------|
--------------------------|--5--5--5--5--5--5--5--5--|
--3--3--3--3--3--3--3--3--|--------------------------|



--------------------------|--------------------------|
--------------------------|--------------------------|
--3--3--3--3--3--3--3--3--|--3--3--3--3--3--3--3--3--|
--------------------------|--------------------------|



--------------------------|--------------------------|
--------------------------|--------------------------|
--------------------------|--------------------------|
--3--3--3--3--3--3--3--3--|--3--3--3--3--3--3--3--3--|



--------------------------|--------------------------|
--------------------------|--------------------------|
--5--5--5--5--5--5--5--5--|--5--5--5--5--5--5--5--5--|
--------------------------|--------------------------|



--------------------------|-------------------|--------------------------|
--------------------------|-------------------|--------------------------|
--0--0--0--0--0--0--0--0--|--0----------------|--3--3--3--3--3--3--3--3--|
--------------------------|-------------------|--------------------------|



--------------------------|--------------------------|------------------------|
--------------------------|--------------------------|------------------------|
--------------------------|--5--5--5--5--5--5--5--5--|------------------------|
--0--0--0--0--0--0--0--0--|--------------------------|--5--5--5--5--5----7----|



--------------------------|--------------------------|
--------------------------|--------------------------|
--3--3--3--3--3--3--3--3--|--------------------------|
--------------------------|--0--0--0--0--0--0--0--0--|



--------------------------|--------------------------|
--------------------------|--------------------------|
--5--5--5--5--5--5--5--5--|--5--5--5--5--5--5--5--5--|
--------------------------|--------------------------|



--------------------------|--------------------------|
--------------------------|--------------------------|
--3--3--3--3--3--3--3--3--|--------------------------|
--------------------------|--0--0--0--0--0--0--0--0--|



--------------------------|------------------------|--------------------------|
--------------------------|------------------------|--------------------------|
--5--5--5--5--5--5--5--5--|------------------------|--3--3--3--3--3--3--3--3--|
--------------------------|--5--5--5--5--5----7----|--------------------------|



--------------------------|--------------------------|
--------------------------|--------------------------|
--------------------------|--5--5--5--5--5--5--5--5--|
--0--0--0--0--0--0--0--0--|--------------------------|



--------------------------|--------------------------|
--------------------------|--------------------------|
--5--5--5--5--5--5--5--5--|--3--3--3--3--3--3--3--3--|
--------------------------|--------------------------|



--------------------------|--------------------------|
--------------------------|--------------------------|
--3--3--3--3--3--3--3--3--|--------------------------|
--------------------------|--0--0--0--0--0--0--0--0--|



--------------------------|--------------------------|
--------------------------|--------------------------|
--------------------0--2--|--3--3--3--3--3--3--3--3--|
--0--0--0--0--0--0--------|--------------------------|



--------------------------|--------------------------|
--------------------------|--------------------------|
--3--3--3--3--3--3--3--3--|--------------------------|
--------------------------|--3--3--3--3--3--3--3--3--|



--------------------------|--------------------------|
--------------------------|--------------------------|
--5--5--5--5--5--5--5--5--|--3--3--3--3--3--3--3--3--|
--------------------------|--------------------------|



--------------------------|--------------------------|
--------------------------|--------------------------|
--3--3--3--3--3--3--3--3--|--------------------------|
--------------------------|--3--3--3--3--3--3--3--3--|



--------------------------|--------------------------|
--------------------------|--------------------------|
--------------------------|--5--5--5--5--5--5--5--5--|
--3--3--3--3--3--3--3--3--|--------------------------|



--------------------------|--------------------------|-------------------|
--------------------------|--------------------------|-------------------|
--5--5--5--5--5--5--5--5--|--0--0--0--0--0--0--0--0--|--0----------------|
--------------------------|--------------------------|-------------------|



--------------------------|--------------------------|
--------------------------|--------------------------|
--3--3--3--3--3--3--3--3--|--------------------------|
--------------------------|--0--0--0--0--0--0--0--0--|



--------------------------|------------------------|--------------------------|
--------------------------|------------------------|--------------------------|
--5--5--5--5--5--5--5--5--|------------------------|--3--3--3--3--3--3--3--3--|
--------------------------|--5--5--5--5--5----7----|--------------------------|



--------------------------|--------------------------|
--------------------------|--------------------------|
--------------------------|--5--5--5--5--5--5--5--5--|
--0--0--0--0--0--0--0--0--|--------------------------|



--------------------------|--------------------------|
--------------------------|--------------------------|
--5--5--5--5--5--5--5--5--|--0--0--0--0--0--0--0--0--|
--------------------------|--------------------------|



--------------------------|--------------------------|
--------------------------|--------------------------|
--------------------------|--0--0--0--0--0--0--0--0--|
--0--0--0--0--0--0--0--0--|--------------------------|



--------------------------|--------------------------|
--------------------------|--------------------------|
--------------------------|--0--0--0--0--0--0--0--0--|
--0--0--0--0--0--0--0--0--|--------------------------|



--------------------------|--------------------------|
--------------------------|--------------------------|
--------------------------|--5--5--5--5--5--5--5--5--|
--0--0--0--0--0--0--0--0--|--------------------------|



--------------------------|------------------|------------------|
--------------------------|------------------|------------------|
--5--5--5--5--5--5--5--5--|------------------|------------------|
--------------------------|------------------|------------------|



------------------|------------------|------------------|------------------|
------------------|------------------|------------------|------------------|
------------------|------------------|------------------|------------------|
------------------|------------------|------------------|------------------|



------------------|--------------------|--------------------------|
------------------|--------------------|--------------------------|
------------------|----------5--5------|--3--3--3--3--3--3--3--3--|
------------------|--------------------|--------------------------|



--------------------------|--------------------------|------------------------|
--------------------------|--------------------------|------------------------|
--------------------------|--5--5--5--5--5--5--5--5--|------------------------|
--0--0--0--0--0--0--0--0--|--------------------------|--5--5--5--5--5----7----|



--------------------------|--------------------------|
--------------------------|--------------------------|
--3--3--3--3--3--3--3--3--|--------------------------|
--------------------------|--0--0--0--0--0--0--0--0--|



--------------------------|--------------------------|
--------------------------|--------------------------|
--5--5--5--5--5--5--5--5--|--5--5--5--5--5--5--5--5--|
--------------------------|--------------------------|



--------------------------|--------------------------|
--------------------------|--------------------------|
--3--3--3--3--3--3--3--3--|--------------------------|
--------------------------|--0--0--0--0--0--0--0--0--|



--------------------------|------------------------|--------------------------|
--------------------------|------------------------|--------------------------|
--5--5--5--5--5--5--5--5--|------------------------|--3--3--3--3--3--3--3--3--|
--------------------------|--5--5--5--5--5----7----|--------------------------|



--------------------------|--------------------------|
--------------------------|--------------------------|
--------------------------|--5--5--5--5--5--5--5--5--|
--0--0--0--0--0--0--0--0--|--------------------------|



--------------------------|--------------------------|
--------------------------|--------------------------|
--5--5--5--5--5--5--5--5--|--3--3--3--3--3--3--3--3--|
--------------------------|--------------------------|



--------------------------|--------------------------|------------------------|
--------------------------|--------------------------|------------------------|
--------------------------|--5--5--5--5--5--5--5--5--|------------------------|
--0--0--0--0--0--0--0--0--|--------------------------|--5--5--5--5--5----7----|



--------------------------|--------------------------|
--------------------------|--------------------------|
--3--3--3--3--3--3--3--3--|--------------------------|
--------------------------|--0--0--0--0--0--0--0--0--|



--------------------------|--------------------------|
--------------------------|--------------------------|
--5--5--5--5--5--5--5--5--|--5--5--5--5--5--5--5--5--|
--------------------------|--------------------------|



--------------------------|--------------------------|
--------------------------|--------------------------|
--0--0--0--0--0--0--0--0--|--------------------------|
--------------------------|--0--0--0--0--0--0--0--0--|



--------------------------|--------------------------|
--------------------------|--------------------------|
--0--0--0--0--0--0--0--0--|--------------------------|
--------------------------|--0--0--0--0--0--0--0--0--|



--------------------------|--------------------------|
--------------------------|--------------------------|
--0--0--0--0--0--0--0--0--|--------------------------|
--------------------------|--0--0--0--0--0--0--0--0--|



--------------------------|--------------------------|
--------------------------|--------------------------|
--5--5--5--5--5--5--5--5--|--5--5--5--5--5--5--5--5--|
--------------------------|--------------------------|



--------------------------|--------------------------|
--------------------------|--------------------------|
--0--0--0--0--0--0--0--0--|--------------------------|
--------------------------|--0--0--0--0--0--0--0--0--|



--------------------------|--------------------------|
--------------------------|--------------------------|
--0--0--0--0--0--0--0--0--|--------------------------|
--------------------------|--0--0--0--0--0--0--0--0--|



--------------------------|--------------------------|
--------------------------|--------------------------|
--0--0--0--0--0--0--0--0--|--------------------------|
--------------------------|--0--0--0--0--0--0--0--0--|



--------------------------|--------------------------|------------------|
--------------------------|--------------------------|------------------|
--5--5--5--5--5--5--5--5--|--5--5--5--5--5--5--5--5--|------------------|
--------------------------|--------------------------|------------------|



------------------|------------------|------------------|------------------|
------------------|------------------|------------------|------------------|
------------------|------------------|------------------|------------------|
------------------|------------------|------------------|------------------|



------------------|------------------||
------------------|------------------||
------------------|------------------||
------------------|------------------||


Sentenced albums
2002 The Cold White Light
2000 Grimson
1998 Frozen
1996 Down
1995 Love & Death
1995 Amok
1991 Shadows Of The Past
The Cold White Light tabs
01Konevitsan Kirkonkellot tabbass tab
02Cross My Heart and Hope to Die tabbass tab
04Neverlasting tabbass tab
06Excuse Me While I Kill Myself tabbass tab
07Blood and Tears tabbass tab
08You Are the One tabbass tab
11No One There tabbass tab

 

1