Search tabs:
Browse artists: 0-9 | A | B | C | D | E | F | G | H | I | J | K | L | M | N | O | P | Q | R | S | T | U | V | W | X | Y | Z
/ Six Feet Under / Alive and Dead (1996) / Insect bass tab

Six Feet Under  Insect
(My 5th tab)
Album: Alive and dead


A|--56----56-|
E|----5\0----|

6x
A|-------------------56--|
E|--5-0-55-0-5-0-55-0----|

2x
E|--0-7-3-5--|

6x
A|-------------------56--|
E|--5-0-55-0-5-0-55-0----|

4x
E|--0-7-3-5--|

4x
E|--0000-3-0000-1-00-4-0000-3-0000-1-00-3--|

4x
E|--0-7-3-5--|

4x
A|-------------------56--|
E|--5-0-55-0-5-0-55-0----|

END









Fuck the commerce!


Six Feet Under albums
2005 13
2004 Graveyard Classics, Vol. 2
2003 Bringer of Blood
2001 True Carnage
2000 Graveyard Classics
1999 Maximum Violence
1997 Warpath
1996 Alive and Dead
1995 Haunted
Alive and Dead tabs
01Insect tabbass tab
02Drowning tabbass tab
03Grinder tabbass tab
05Human Target (live) tabbass tab
06Lycanthropy (live) tabbass tab

 

1