Search tabs:
Browse artists: 0-9 | A | B | C | D | E | F | G | H | I | J | K | L | M | N | O | P | Q | R | S | T | U | V | W | X | Y | Z
/ / / bass tab

The Stranglers - Never To Look Back
Tabbed By: Reecy
Email: Bushhead81@Hotmail.com

Tuning: Standard (E A D G)



SONG: NEVER TO LOOK BACK
 ARTIST: THE STRANGLERS
 ALBUM: 10
 BASSIST: JEAN JACQUES BURNEL
 TAB BY: johnrosk@btinternet.com




			(A)
G|----------------------------------|---------------------------------|
D|----------------------------------|---------------------------------|
A|-------------------------------3--|--5---5---5---5---5---3----------|
E|---3---3---3---3---3---3---6------|--------------------------6---5--|

Repeat A

			(B)
G|----------------------------------|---------------------------------|
D|----------------------------------|---------------------------------|
A|----------------------------------|---------------------------------|
E|---3---3---3---3---3---3---3---3--|--1---1---1---1---1---1---1---1--|

							
			(C)
G|----------------------------------|---------------------------------|
D|----------------------------------|---------------------------------|
A|----------------------------------|--5---5---5---5---5---3----------|
E|---6---6---6---6---6---6---6---6--|--------------------------6---5--|


Repeat B, C, B

			(D)
G|----------------------------------|---------------------------------|
D|----------------------------------|---------------------------------|
A|----------------------------------|--5---5---5---0---5---0---5---0--|
E|---6---6---6---6---6---6---6---6--|---------------------------------|


			(E)
G|----------------------------------|---------------------------------|
D|----------------------------------|---------------------------------|
A|----------------------------------|---------------------------------|
E|---1---1---1---1---1---1---1---1--|--8---8---8---8---8---8---8---8--|

Repeat C, A, A, B, C

Repeat B, C, B, C, E

`			(F)
G|----------------------------------|---------------------------------|
D|----------------------------------|---------------------------------|
A|----------------------------------|--5---5---5---5---5---5---3------|
E|---6---6---6---6---6---6---6---6--|------------------------------6--|

Repeat E

			(G)
G|----------------------------------|---------------------------------|
D|----------------------------------|---------------------------------|
A|----------------------------------|--5---5---5---5---5---5---5---5--|
E|---6---6---6---6---6---6---6---6--|---------------------------------|


			(H)
G|----------------------------------|---------------------------------|
D|----------------------------------|---------------------------------|
A|----------------------------------|---------------------------------|
E|---7---7---7---R---1---1---R---1--|--5---5---5---5---3---3---3---3--|


			(I)
G|----------------------------------|---------------------------------|
D|----------------------------------|---------------------------------|
A|----------------------------------|---------------------------------|
E|--7---7---R---7---1---1---1--R----|--8---8---8---8---6---6---6---6--|


Repeat H, I
			(J)
G|----------------------------------|---------------------------------|
D|----------------------------------|---------------------------------|
A|--5---5---5-------8---8---8---8---|-13--13--13--13--17--17--17--17-S|
E|----------------------------------|---------------------------------|


			(K)
G|----------------------------------|---------------------------------|
D|----------------------------------|---------------------------------|
A|----------------------------------|--5---5---5---5---5---3----------|
E|---3---3---3---3---3---3---3---3--|--------------------------6---5--|

Repeat A, B, C, B, C, B, D, E

Repeat C, E, D, H, I, H, I, J

Repeat A untill song fades out


albums
tabs

 

1