Search tabs:
Browse artists: 0-9 | A | B | C | D | E | F | G | H | I | J | K | L | M | N | O | P | Q | R | S | T | U | V | W | X | Y | Z
/ / / bass tab

The Stranglers - Mad Hatter
Tabbed By: Reecy
Email: Bushhead81@Hotmail.com

Tuning: Standard (E A D G)



SONG: MAD HATTER
 ARTIST: THE STRANGLERS
 ALBUM: AURAL SCULPTURE
 BASSIST: JEAN JACQUES BURNEL
 TAB BY CHRIS@LOOPY0.DEMON.CO.UK


                                   (A)
G|----------------------------------|----------------------------------|
D|----------------------------------|----------------------------------|
A|--9---7---6---4-----9---7---6---4-|--9---7---6---5-----4---6---7---8-|
E|----------------------------------|----------------------------------|


                                   (B)
G|----------------------------------|----------------------------------|
D|----------------------------------|----------------------------------|
A|--9---7---6---4-----9---7---6---4-|--9---7---6---5-----4---6---7---8-|
E|----------------------------------|----------------------------------|


                                   (C)
G|----------------------------------|----------------------------------|
D|----------------------------------|----------------------------------|
A|----------------------------------|----------------------------------|
E|--7---5---4---2----7---5---4---2--|--7---5---4---3-----2---4---5---6-|


                                   (D)
G|----------------------------------|----------------------------------|
D|----------------------------------|----------------------------------|
A|--9---7---6---4-----9---7---6---4-|--9---7---6---5-----4---6---7---8-|
E|----------------------------------|----------------------------------|


                                   (E)
G|---------------6------------------|---------------6------------------|
D|----------6-----------------------|----------6-----------------------|
A|------8--------------6------------|------8--------------6------------|
E|--9----------------------7---7\---|--9----------------------7---7\---|


                                   (F)
G|---------------6------------------|----------------------------------|
D|----------6-----------------------|----------------------------------|
A|------8--------------6------------|--8---7---6---5---4---2---0-------|
E|--9----------------------7---7\---|------------------------------4---|


                                   (G)
G|----------------------------------|----------------------------------|
D|----------------------------------|----------------------------------|
A|--9---7---6---4-----9---7---6---4-|--9---7---6---5-----4---6---7---8-|
E|----------------------------------|----------------------------------|


                                   (H)
G|----------------------------------|----------------------------------|
D|----------------------------------|----------------------------------|
A|--9---7---6---4-----9---7---6---4-|--9---7---6---5-----4---6---7---8-|
E|----------------------------------|----------------------------------|


                                   (I)
G|----------------------------------|----------------------------------|
D|----------------------------------|----------------------------------|
A|----------------------------------|----------------------------------|
E|--7---5---4---2----7---5---4---2--|--7---5---4---3-----2---4---5---6-|


                                   (J)
G|----------------------------------|----------------------------------|
D|----------------------------------|----------------------------------|
A|--9---7---6---4-----9---7---6---4-|--9---7---6---5-----4---6---7---8-|
E|----------------------------------|----------------------------------|



                                   (K)
G|---------------6------------------|---------------6------------------|
D|----------6-----------------------|----------6-----------------------|
A|------8--------------6------------|------8--------------6------------|
E|--9----------------------7---7\---|--9----------------------7---7\---|


                                   (L)
G|---------------6------------------|----------------------------------|
D|----------6-----------------------|----------------------------------|
A|------8--------------6------------|--8---7---6---5---4---2---0-------|
E|--9----------------------7---7\---|------------------------------4---|


                                   (M)
G|----------------------------------|----------------------------------|
D|-----5--6--7----------------------|-----3--4--5----------------------|
A|--6--------------------3--4--5----|--4---------------------1--2--3---|
E|--------------------4-------------|---------------------2------------|
			

                                   (N)
G|----------------------------------|----------------------------------|
D|-----5--6--7----------------------|----------------------------------|
A|--6--------------------3--4--5----|----------------------------------|
E|--------------------4-------------|--0-0---0-0-----------------------|


                                   (O)
G|----------------------------------|----------------------------------|
D|-----3--4--5--6--4--3--1----------|-----3--4--5--------11\---11\-----|
A|--4-------------------------------|--4-------------------------------|
E|----------------------------------|----------------------------------|


                                   (P)
G|----------------------------------|----------------------------------|
D|----------------------------------|----------------------------------|
A|--9---7---6---4-----9---7---6---4-|--9---7---6---5-----4---6---7---8-|
E|----------------------------------|----------------------------------|


                                   (Q)
G|----------------------------------|----------------------------------|
D|----------------------------------|----------------------------------|
A|--9---7---6---4-----9---7---6---4-|--9---7---6---5-----4---6---7---8-|
E|----------------------------------|----------------------------------|


                                   (R)
G|----------------------------------|----------------------------------|
D|----------------------------------|----------------------------------|
A|----------------------------------|----------------------------------|
E|--7---5---4---2----7---5---4---2--|--7---5---4---3-----2---4---5---6-|


                                   (S)
G|----------------------------------|----------------------------------|
D|----------------------------------|----------------------------------|
A|--9---7---6---4-----9---7---6---4-|--9---7---6---5-----4---6---7---8-|
E|----------------------------------|----------------------------------|


                                   (T)
G|---------------6------------------|---------------6------------------|
D|----------6-----------------------|----------6-----------------------|
A|------8--------------6------------|------8--------------6------------|
E|--9----------------------7---7\---|--9----------------------7---7\---|


                                   (U)
G|---------------6------------------|----------------------------------|
D|----------6-----------------------|----------------------------------|
A|------8--------------6------------|--8---7---6---5---4---2---0-------|
E|--9----------------------7---7\---|------------------------------4---|


                                   (V)
G|----------------------------------|----------------------------------|
D|-----5--6--7----------------------|-----3--4--5----------------------|
A|--6--------------------3--4--5----|--4---------------------1--2--3---|
E|--------------------4-------------|---------------------2------------|
			

                                   (W)
G|----------------------------------|----------------------------------|
D|-----5--6--7----------------------|----------------------------------|
A|--6--------------------3--4--5----|--7-7---7-7-----------------------|
E|--------------------4-------------|-----------------9v---------------|


                                   (X)
G|----------------------------------|----------------------------------|
D|----------------------------------|------3---4---5---6---4---3---1---|
A|--4---2---1-------4---2---1-------|--4-------------------------------|
E|--------------4---------------4---|----------------------------------|


                                   (Y)
G|------------------6---4---3---1---|------------------6---4-----------|
D|------3---4---5-------------------|------3---4---5-----------8---6---|
A|--4-------------------------------|--4-------------------------------|
E|----------------------------------|----------------------------------|


                                   (Z)
G|----------------------------------|----------------------------------|
D|----------------------------------|----------------------------------|
A|--9---7---6---4-----9---7---6---4-|--9---7---6---5-----4---6---7---8-|
E|----------------------------------|----------------------------------|


                                   (AA)
G|----------------------------------|----------------------------------|
D|----------------------------------|----------------------------------|
A|--9---7---6---4-----9---7---6---4-|--9---7---6---5-----4---6---7---8-|
E|----------------------------------|----------------------------------|


                                   (AB)
G|---------------6------------------|---------------6------------------|
D|----------6-----------------------|----------6-----------------------|
A|------8--------------6------------|------8--------------6------------|
E|--9----------------------7---7\---|--9----------------------7---7\---|


                                   (AC)
G|---------------6------------------|----------------------------------|
D|----------6-----------------------|----------------------------------|
A|------8--------------6------------|--8---7---6---5---4---2---0-------|
E|--9----------------------7---7\---|------------------------------4---|


                                   (AD)
G|----------------------------------|----------------------------------|
D|-----5--6--7----------------------|-----3--4--5----------------------|
A|--6--------------------3--4--5----|--4---------------------1--2--3---|
E|--------------------4-------------|---------------------2------------|
			
 Repeat AD Until The Song Fades Out


albums
tabs

 

1