Search tabs:
Browse artists: 0-9 | A | B | C | D | E | F | G | H | I | J | K | L | M | N | O | P | Q | R | S | T | U | V | W | X | Y | Z
/ / / bass tab

The Stranglers - No Mercy
Tabbed By: Reecy
Email: Bushhead81@Hotmail.com

Tuning: Standard (E A D G)



SONG:NO MERCY
 ARTIST: THE STRANGLERS
 ALBUM: AURAL SCULPTURE
 BASSIST: JEAN JACQUES BURNEL
 TAB BY CHRIS@LOOPY0.DEMON.CO.UK

 ~=BEND DOWN

 /=SLIDE UP
                                   (A)
G|----------------------------------|----------------------------------|
D|----------------------------------|----------------------------------|
A|----------------------------------|----------------------------------|
E|----------------------------------|-------------------------3~--3~---|

										
                                   (B)
G|----------------------------------|----------------------------------|
D|----------------------------------|----------------------------------|
A|----------------------------------|----------------------------------|
E|----------------------------------|----------------------------------|


                                   (C)
G|----------------------------------|----------------------------------|
D|----------------------------------|----------------------------------|
A|----------------------------------|----------------------------------|
E|--3-----3-----3---3----3---3------|--3-----3-----3---3----3---3------|


                                   (D)
G|----------------------------------|----------------------------------|
D|----------------------------------|----------------------------------|
A|----------------------------------|----------------------------------|
E|--3-----3-----3---3----3---3------|--1-----1-----1---1----1---1------|


                                   (E)
G|----------------------------------|----------------------------------|
D|----------------------------------|----------------------------------|
A|--3-----3-----3---3----3---3------|--6-----6-----6---6----6---6------|
E|----------------------------------|----------------------------------|


                                   (F)
G|----------------------------------|----------------------------------|
D|----------------------------------|----------------------------------|
A|----------------------------------|----------------------------------|
E|--3---3---3/-----10~--10~----3----|--3---3---3/-----10~--10~----3----|


                                   (G)
G|----------------------------------|----------------------------------|
D|----------------------------------|----------------------------------|
A|----------------------------------|----------------------------------|
E|--3-----3-----3---3----3---3------|--3-----3-----3---3----3---3------|


                                   (H)
G|----------------------------------|----------------------------------|
D|----------------------------------|----------------------------------|
A|----------------------------------|----------------------------------|
E|--3-----3-----3---3----3---3------|--1-----1-----1---1----1---1------|


                                   (I)
G|----------------------------------|----------------------------------|
D|----------------------------------|----------------------------------|
A|--3-----3-----3---3----3---3------|--6-----6-----6---6----6---6------|
E|----------------------------------|----------------------------------|


                                   (J)
G|----------------------------------|----------------------------------|
D|----------------------------------|----------------------------------|
A|----------------------------------|----------------------------------|
E|--3---3---3/-----10~--10~----3----|--3---3---3/-----10~--10~----3----|


                                   (K)
G|----------------------------------|----------------------------------|
D|----------------------------------|----------------------------------|
A|----------------------------------|----------------------------------|
E|--3---3---3/-----10~--10~----3----|--3---3---3/-----10~--10~----3----|


                                   (L)
G|----------------------------------|----------------------------------|
D|----------------------------------|----------------------------------|
A|----------------------------3--3--|----------------------------------|
E|--5-----5-----5---5---5-----------|---1-----1-----1---1----1---1-----|


                                   (M)
G|----------------------------------|----------------------------------|
D|----------------------------------|----------------------------------|
A|----------------------------3--3--|----------------------------------|
E|--5-----5-----5---5---5-----------|---1-----1-----1---1----1---1-----|
			

                                   (N)
G|----------------------------------|----------------------------------|
D|----------------------------3-----|----------------------------3-----|
A|-5--5--5--5--5--5--5--5--------3--|-5--5--5--5--5--5--5--5--------3--|
E|----------------------------------|----------------------------------|


                                   (O)
G|----------------------------------|----------------------------------|
D|----------------------------3-----|----------------------------------|
A|-5--5--5--5--5--5--5--5--------3--|-5--5--5--5--5--5--5--5-----------|
E|----------------------------------|---------------------------0--1--2|


                                   (P)
G|----------------------------------|----------------------------------|
D|----------------------------------|----------------------------------|
A|----------------------------------|----------------------------------|
E|--3-----3-----3---3----3---3------|--3-----3-----3---3----3---3------|


                                   (Q)
G|----------------------------------|----------------------------------|
D|----------------------------------|----------------------------------|
A|----------------------------------|----------------------------------|
E|--3-----3-----3---3----3---3------|--3-----3-----3---3----3---3------|


                                   (R)
G|----------------------------------|----------------------------------|
D|----------------------------------|----------------------------------|
A|----------------------------------|----------------------------------|
E|--3-----3-----3---3----3---3------|--3-----3-----3---3----3---3------|


                                   (S)
G|----------------------------------|----------------------------------|
D|----------------------------------|----------------------------------|
A|----------------------------------|----------------------------------|
E|--3-----3-----3---3----3---3------|--1-----1-----1---1----1---1------|


                                   (T)
G|----------------------------------|----------------------------------|
D|----------------------------------|----------------------------------|
A|--3-----3-----3---3----3---3------|--6-----6-----6---6----6---6------|
E|----------------------------------|----------------------------------|


                                   (U)
G|----------------------------------|----------------------------------|
D|----------------------------------|----------------------------------|
A|----------------------------------|----------------------------------|
E|--3---3---3/-----10~--10~----3----|--3---3---3/-----10~--10~----3----|


                                   (V)
G|----------------------------------|----------------------------------|
D|----------------------------------|----------------------------------|
A|----------------------------------|----------------------------------|
E|--3-----3-----3---3----3---3------|--3-----3-----3---3----3---3------|


                                   (W)
G|----------------------------------|----------------------------------|
D|----------------------------------|----------------------------------|
A|----------------------------------|----------------------------------|
E|--3-----3-----3---3----3---3------|--1-----1-----1---1----1---1------|


                                   (X)
G|----------------------------------|----------------------------------|
D|----------------------------------|----------------------------------|
A|--3-----3-----3---3----3---3------|--6-----6-----6---6----6---6------|
E|----------------------------------|----------------------------------|


                                   (Y)
G|----------------------------------|----------------------------------|
D|----------------------------------|----------------------------------|
A|----------------------------------|----------------------------------|
E|--3---3---3/-----10~--10~----3----|--3---3---3/-----10~--10~----3----|


                                   (Z)
G|----------------------------------|----------------------------------|
D|----------------------------------|----------------------------------|
A|----------------------------------|----------------------------------|
E|--3---3---3/-----10~--10~----3----|--3---3---3/-----10~--10~----3----|


                                   (AA)
G|----------------------------------|----------------------------------|
D|----------------------------------|----------------------------------|
A|----------------------------3--3--|----------------------------------|
E|--5-----5-----5---5---5-----------|---1-----1-----1---1----1---1-----|


                                   (AB)
G|----------------------------------|----------------------------------|
D|----------------------------------|----------------------------------|
A|----------------------------3--3--|----------------------------------|
E|--5-----5-----5---5---5-----------|---1-----1-----1---1----1---1-----|
			

                                   (AC)
G|----------------------------------|----------------------------------|
D|----------------------------3-----|----------------------------3-----|
A|-5--5--5--5--5--5--5--5--------3--|-5--5--5--5--5--5--5--5--------3--|
E|----------------------------------|----------------------------------|


                                   (AD)
G|----------------------------------|----------------------------------|
D|----------------------------3-----|----------------------------------|
A|-5--5--5--5--5--5--5--5--------3--|-5--5--5--5--5--5--5--5-----------|
E|----------------------------------|---------------------------0--1--2|


                                   (AE)
G|----------------------------------|----------------------------------|
D|----------------------------------|----------------------------------|
A|----------------------------------|----------------------------------|
E|--3---3---3/-----10~--10~----3----|--3-----3-----3---3----3---3------|


                                   (AF)
G|----------------------------------|----------------------------------|
D|----------------------------------|----------------------------------|
A|----------------------------------|----------------------------------|
E|--3---3---3/-----10~--10~----3----|--3-----3-----3---3----3---3------|


                                   (AG)
G|----------------------------------|----------------------------------|
D|----------------------------------|----------------------------------|
A|----------------------------------|----------------------------------|
E|--3---3---3/-----10~--10~----3----|--3-----3-----3---3----3---3------|


                                   (AH)
G|----------------------------------|----------------------------------|
D|----------------------------------|----------------------------------|
A|----------------------------------|----------------------------------|
E|--3---3---3/-----10~--10~----3----|--3-----3-----3---3----3---3------|


                                   (AI)
G|----------------------------------|----------------------------------|
D|----------------------------------|----------------------------------|
A|----------------------------------|----------------------------------|
E|--3---3---3/-----10~--10~----3----|--3-----3-----3---3----3---3------|


                                   (AJ)
G|----------------------------------|----------------------------------|
D|----------------------------------|----------------------------------|
A|----------------------------------|----------------------------------|
E|--1---1---1/-----8~---8~----1-----|--1-----1-----1---1----1---1------|


                                   (AK)
G|----------------------------------|----------------------------------|
D|----------------------------------|----------------------------------|
A|----------------------------------|----------------------------------|
E|--3---3---3/-----10~--10~----3----|--3-----3-----3---3----3---3------|
			

                                   (AL)
G|----------------------------------|----------------------------------|
D|----------------------------------|----------------------------------|
A|----------------------------------|----------------------------------|
E|--1---1---1/-----8~---8~----1-----|--1-----1-----1---1----1---1------|

 REPEAT AK AND AL UNTIL THE SONG FADES OUT


albums
tabs

 

1