Search tabs:
Browse artists: 0-9 | A | B | C | D | E | F | G | H | I | J | K | L | M | N | O | P | Q | R | S | T | U | V | W | X | Y | Z
/ / / bass tab

The Stranglers - Uptown
Tabbed By: Reecy
Email: Bushhead81@Hotmail.com

Tuning: Standard (E A D G)



SONG: UPTOWN
 ARTIST: THE STRANGLERS
 ALBUM: AURAL SCULPTURE
 BASSIST: JEAN JACQUES BURNEL
 TAB BY CHRIS@LOOPY0.DEMON.CO.UK


                                   (A)
G|----------------------------------|----------------------------------|
D|----------------------------------|----------------------------------|
A|----------------------------------|----------------------------------|
E|-0---0---0---0---3---3---3---3----|-5---5---5---5---0---0---0---0----|
			

                                   (B)
G|----------------------------------|----------------------------------|
D|----------------------------------|----------------------------------|
A|----------------------------------|----------------------------------|
E|-0---0---0---0---3---3---3---3----|-5---5---5---5---0---0---0---0----|


                                   (C)
G|----------------------------------|----------------------------------|
D|----------------------------------|-------------------------5---4----|
A|----------------------------------|----------------------------------|
E|-0---0---0---0---3---3---3---3----|-5---5---5---5---0---0------------|


                                   (D)
G|----------------------------------|----------------------------------|
D|----------------------------------|-------------------------5---4----|
A|----------------------------------|----------------------------------|
E|-0---0---0---0---3---3---3---3----|-5---5---5---5---0---0------------|


                                   (E)
G|----------------------------------|----------------------------------|
D|----------------------------------|--------------------------5---4---|
A|----------------------------------|----------------------------------|
E|-0---0---0---0---3---3---3---3----|-5---5---5---5---0---0------------|


                                   (F)
G|----------------------------------|----------------------------------|
D|----------------------------------|----------------------------------|
A|----------------------------------|----------------------------------|
E|-0---0---0---0---3---3---3---3----|-5---5---5---5---0---0---0---0----|


                                   (G)
G|----------------------------------|----------------------------------|
D|----------------------------------|----------------------------------|
A|-3---3---3---3--------------------|-2---2---2---2--------------------|
E|------------------2---2---2---2---|-------------------3---3---3---3--|


                                   (H)
G|----------------------------------|----------------------------------|
D|----------------------------------|----------------------------------|
A|----------------------------------|-2---1---2---1---2---1---2---1----|
E|-5---5---5---5----1---1---1---1---|----------------------------------|


                                   (I)
G|----------------------------------|----------------------------------|
D|----------------------------------|-------------------------5---4----|
A|----------------------------------|----------------------------------|
E|-0---0---0---0---3---3---7---6----|-5---5---5---5---0---0------------|


                                   (J)
G|----------------------------------|----------------------------------|
D|----------------------------------|-------------------------5---4----|
A|----------------------------------|----------------------------------|
E|-0---0---0---0---3---3---7---6----|-5---5---5---5---0---0------------|


                                   (K)
G|----------------------------------|----------------------------------|
D|----------------------------------|-------------------------5---4----|
A|----------------------------------|----------------------------------|
E|-0---0---0---0---3---3---7---6----|-5---5---5---5---0---0------------|


                                   (L)
G|----------------------------------|----------------------------------|
D|----------------------------------|-------------------------5---4----|
A|----------------------------------|----------------------------------|
E|-0---0---0---0---3---3---7---6----|-5---5---5---5---0---0------------|


                                   (M)
G|----------------------------------|----------------------------------|
D|----------------------------------|----------------------------------|
A|-3---3---3---3--------------------|-2---2---2---2--------------------|
E|------------------2---2---2---2---|-------------------3---3---3---3--|


                                   (N)
G|----------------------------------|----------------------------------|
D|----------------------------------|----------------------------------|
A|----------------------------------|-2---1---2---1---2---1---2---1----|
E|-5---5---5---5----1---1---1---1---|----------------------------------|
			

                                   (O)
G|----------------------------------|----------------------------------|
D|----------------------------------|----------------------------------|
A|-3---3---3---3--------------------|-2---2---2---2--------------------|
E|------------------2---2---2---2---|-------------------3---3---3---3--|


                                   (P)
G|----------------------------------|----------------------------------|
D|----------------------------------|----------------------------------|
A|----------------------------------|-2---1---2---1---2---1---2---1----|
E|-5---5---5---5----1---1---1---1---|----------------------------------|


                                   (Q)
G|----------------------------------|----------------------------------|
D|----------------------------------|----------------------------------|
A|----------------------------------|----------------------------------|
E|-5---5---5-------0--5---5---5-----|-0--5---5---5----0--5---5---5---7-|


                                   (R)
G|----------------------------------|----------------------------------|
D|----------------------------------|----------------------------------|
A|---------7--7----8--8----7--7-----|---------7--7----8--8----7--7-----|
E|-8--8-----------------------------|-8--8-----------------------------|


                                   (S)
G|----------------------------------|----------------------------------|
D|----------------------------------|----------------------------------|
A|----------------------------------|----------------------------------|
E|-5---5---5-------0--5---5---5-----|-0--5---5---5----0--5---5---5---7-|


                                   (T)
G|----------------------------------|----------------------------------|
D|----------------------------------|----------------------------------|
A|---------7--7----8--8----7--7-----|---------7--7----8--8----7--7-----|
E|-8--8-----------------------------|-8--8-----------------------------|


                                   (U)
G|----------------------------------|----------------------------------|
D|----------------------------------|----------------------------------|
A|-5--5-----------------------------|---------4--4----5--5----4--4-----|
E|-------2--2----3--3----5--3-------|-5--5-----------------------------|


                                   (V)
G|----------------------------------|----------------------------------|
D|----------------------------------|----------------------------------|
A|-5--5-----------------------------|---------4--4----5--5----4--4-----|
E|-------2--2----3--3----5--3-------|-5--5-----------------------------|


                                   (W)
G|----------------------------------|----------------------------------|
D|----------------------------------|----------------------------------|
A|-5--5-----------------------------|--3---3---3---3---3---3---3---2---|
E|-------2--2----3--3----5--3-------|----------------------------------|


                                   (X)
G|----------------------------------|----------------------------------|
D|----------------------------------|-------------------------5---4----|
A|----------------------------------|----------------------------------|
E|-0---0---0---0---3---3---7---6----|-5---5---5---5---0---0------------|


                                   (Y)
G|----------------------------------|----------------------------------|
D|----------------------------------|-------------------------5---4----|
A|----------------------------------|----------------------------------|
E|-0---0---0---0---3---3---7---6----|-5---5---5---5---0---0------------|


                                   (Z)
G|----------------------------------|----------------------------------|
D|----------------------------------|-------------------------5---4----|
A|----------------------------------|----------------------------------|
E|-0---0---0---0---3---3---7---6----|-5---5---5---5---0---0------------|


                                   (AA)
G|----------------------------------|----------------------------------|
D|----------------------------------|----------------------------------|
A|----------------------------------|----------------------------------|
E|-0---0---0---0---3---3---7---6----|-5---5---5---5---0---0---0---0----|


                                   (AB)
G|----------------------------------|----------------------------------|
D|----------------------------------|----------------------------------|
A|-3---3---3---3--------------------|-2---2---2---2--------------------|
E|------------------2---2---2---2---|-------------------3---3---3---3--|


                                   (AC)
G|----------------------------------|----------------------------------|
D|----------------------------------|----------------------------------|
A|----------------------------------|-2---1---2---1---2---1---2---1----|
E|-5---5---5---5----1---1---1---1---|----------------------------------|
			

                                   (AD)
G|----------------------------------|----------------------------------|
D|----------------------------------|----------------------------------|
A|-3---3---3---3--------------------|-2---2---2---2--------------------|
E|------------------2---2---2---2---|-------------------3---3---3---3--|


                                   (AE)
G|----------------------------------|----------------------------------|
D|----------------------------------|----------------------------------|
A|----------------------------------|-2---1---2---1---2---1---2---1----|
E|-5---5---5---5----1---1---1---1---|----------------------------------|


                                   (AF)
G|----------------------------------|----------------------------------|
D|----------------------------------|-------------------------5---4----|
A|----------------------------------|----------------------------------|
E|-0---0---0---0---3---3---7---6----|-5---5---5---5---0---0------------|


                                   (AG)
G|----------------------------------|----------------------------------|
D|----------------------------------|-------------------------5---4----|
A|----------------------------------|----------------------------------|
E|-0---0---0---0---3---3---7---6----|-5---5---5---5---0---0------------|


                                   (AH)
G|----------------------------------|----------------------------------|
D|----------------------------------|-------------------------5---4----|
A|----------------------------------|----------------------------------|
E|-0---0---0---0---3---3---7---6----|-5---5---5---5---0---0------------|


                                   (AI)
G|----------------------------------|----------------------------------|
D|----------------------------------|----------------------------------|
A|----------------------------------|----------------------------------|
E|-0---0---0---0---3---3---7---6----|-5---5---5---5---0---0---0---0----|


                                   (AJ)
G|----------------------------------|----------------------------------|
D|----------------------------------|----------------------------------|
A|-3---3---3---3--------------------|-2---2---2---2--------------------|
E|------------------2---2---2---2---|-------------------3---3---3---3--|


                                   (AK)
G|----------------------------------|----------------------------------|
D|----------------------------------|----------------------------------|
A|----------------------------------|-2---1---2---1---2---1---2---1----|
E|-5---5---5---5----1---1---1---1---|----------------------------------|


                                   (AL)
G|----------------------------------|----------------------------------|
D|----------------------------------|----------------------------------|
A|-3---3---3---3--------------------|-2---2---2---2--------------------|
E|------------------2---2---2---2---|-------------------3---3---3---3--|


                                   (AM)
G|----------------------------------|----------------------------------|
D|----------------------------------|----------------------------------|
A|----------------------------------|-2---1---2---1---2---1---2---1----|
E|-5---5---5---5----1---1---1---1---|----------------------------------|


                                   (AN)
G|----------------------------------|----------------------------------|
D|----------------------------------|----------------------------------|
A|-3---3---3---3--------------------|-2---2---2---2--------------------|
E|------------------2---2---2---2---|-------------------3---3---3---3--|


                                   (AO)
G|----------------------------------|----------------------------------|
D|----------------------------------|----------------------------------|
A|----------------------------------|-2---1---2---1---2---1---2---1----|
E|-5---5---5---5----1---1---1---1---|----------------------------------|


                                   (AP)
G|----------------------------------|----------------------------------|
D|----------------------------------|----------------------------------|
A|-3---3---3---3--------------------|-2---2---2---2--------------------|
E|------------------2---2---2---2---|-------------------3---3---3---3--|


                                   (AQ)
G|----------------------------------|----------------------------------|
D|----------------------------------|----------------------------------|
A|----------------------------------|-2---1---2---1---2---1---2---1----|
E|-5---5---5---5----1---1---1---1---|----------------------------------|

 REPEAT Q TO T UNTIL THE SONG FADES OUT


albums
tabs

 

1