Search tabs:
Browse artists: 0-9 | A | B | C | D | E | F | G | H | I | J | K | L | M | N | O | P | Q | R | S | T | U | V | W | X | Y | Z
/ / / bass tab

The Stranglers - Do You Wanna
Tabbed By: Reecy
Email: Bushhead81@Hotmail.com

Tuning: Standard (E A D G)



DO YOU WANNA?
 ARTISI: THE STRANGLERS
 ALBUM: BLACK AND WHITE
 BASSIST : JEAN JACQUES BURNEL
 TAB BY CHRIS@LOOPY0.DEMON.CO.UK

 GUITAR INTRO

                                   (A)
G|----------------------------------|----------------0--------2--0-----|
D|------------------5-------4-------|-------------2-----2--3--------3--|
A|----3----------7-----7-6-----6-5--|----3-----------------------------|
E|-5-----5--3-----------------------|-5-----5--3-----------------------|
			

                                   (B)
G|----------------------------------|----------------0--------2--0-----|
D|------------------5-------4-------|-------------2-----2--3--------3--|
A|----3----------7-----7-6-----6-5--|----3-----------------------------|
E|-5-----5--3-----------------------|-5-----5--3-----------------------|


                                   (C)
G|----------------0--------2--0-----|
D|-------------2-----2--3--------3--|
A|----3-----------------------------|
E|-5-----5--3-----------------------|


 VERSE                             (D)
G|----------------------------------|----------------------------------|
D|-2-----2--1--0--------------------|-2-----2--1--0--------------------|
A|----2--------------3--5--3--------|----2--------------3--5--3--------|
E|----------------------------5--3--|----------------------------5--3--|


                                   (E)
G|----------------------------------|----------------------------------|
D|-2-----2--1--0--------------------|-2-----2--1--0--------------------|
A|----2--------------3--5--3--------|----2--------------3--5--3--------|
E|----------------------------5--3--|----------------------------5--3--|


                                   (F)
G|----------------------------------|----------------0--------2--0-----|
D|------------------5-------4-------|-------------2-----2--3--------3--|
A|----3----------7-----7-6-----6-5--|----3-----------------------------|
E|-5-----5--3-----------------------|-5-----5--3-----------------------|


                                   (G)
G|----------------------------------|----------------0--------2--0-----|
D|------------------5-------4-------|-------------2-----2--3--------3--|
A|----3----------7-----7-6-----6-5--|----3-----------------------------|
E|-5-----5--3-----------------------|-5-----5--3-----------------------|


                                   (H)
G|----------------------------------|----------------------------------|
D|-2-----2--1--0--------------------|-2-----2--1--0--------------------|
A|----2--------------3--5--3--------|----2--------------3--5--3--------|
E|----------------------------5--3--|----------------------------5--3--|


                                   (I)
G|----------------------------------|----------------------------------|
D|-2-----2--1--0--------------------|-2-----2--1--0--------------------|
A|----2--------------3--5--3--------|----2--------------3--5--3--------|
E|----------------------------5--3--|----------------------------5--3--|


                                   (J)
G|----------------------------------|----------------0--------2--0-----|
D|------------------5-------4-------|-------------2-----2--3--------3--|
A|----3----------7-----7-6-----6-5--|----3-----------------------------|
E|-5-----5--3-----------------------|-5-----5--3-----------------------|


                                   (K)
G|----------------------------------|----------------0--------2--0-----|
D|------------------5-------4-------|-------------2-----2--3--------3--|
A|----3----------7-----7-6-----6-5--|----3-----------------------------|
E|-5-----5--3-----------------------|-5-----5--3-----------------------|


                                   (L)
G|-------5--------------------8-10--|-------5--------------------8-10--|
D|----7-------------8-10---10-------|----7-------------8-10---10-------|
A|-5-------------10------8----------|-5-------------10------8----------|
E|----------------------------------|----------------------------------|


                                   (M)
G|-------5--------------------8-10--|-------5---------3-3-3-3-2-3-2-0--|
D|----7-------------8-10---10-------|----7-----------------------------|
A|-5-------------10------8----------|-5--------------------------------|
E|----------------------------------|----------------------------------|


                                   (N)
G|----------------------------------|----------------0--------2--0-----|
D|------------------5-------4-------|-------------2-----2--3--------3--|
A|----3----------7-----7-6-----6-5--|----3-----------------------------|
E|-5-----5--3-----------------------|-5-----5--3-----------------------|


                                   (O)
G|----------------------------------|----------------0--------2--0-----|
D|------------------5-------4-------|-------------2-----2--3--------3--|
A|----3----------7-----7-6-----6-5--|----3-----------------------------|
E|-5-----5--3-----------------------|-5-----5--3-----------------------|


                                   (P)
G|----------------------------------|----------------------------------|
D|-2-----2--1--0--------------------|-2-----2--1--0--------------------|
A|----2--------------3--5--3--------|----2--------------3--5--3--------|
E|----------------------------5--3--|----------------------------5--3--|


                                   (Q)
G|----------------------------------|----------------------------------|
D|-2-----2--1--0--------------------|-2-----2--1--0--------------------|
A|----2--------------3--5--3--------|----2--------------3--5--3--------|
E|----------------------------5--3--|----------------------------5--3--|


                                   (R)
G|----------------------------------|----------------0--------2--0-----|
D|------------------5-------4-------|-------------2-----2--3--------3--|
A|----3----------7-----7-6-----6-5--|----3-----------------------------|
E|-5-----5--3-----------------------|-5-----5--3-----------------------|


                                   (S)
G|----------------------------------|----------------0--------2--0-----|
D|------------------5-------4-------|-------------2-----2--3--------3--|
A|----3----------7-----7-6-----6-5--|----3-----------------------------|
E|-5-----5--3-----------------------|-5-----5--3-----------------------|


                                   (T)
G|----------------------------------|----------------------------------|
D|----------------------------------|----------------------------------|
A|----------------------------------|----------------------------------|
E|-5--3--5--3--5--3---5--3--0--5--3-|-5--3--5--3--5--3---5--3--0--5--3-|


albums
tabs

 

1