Search tabs:
Browse artists: 0-9 | A | B | C | D | E | F | G | H | I | J | K | L | M | N | O | P | Q | R | S | T | U | V | W | X | Y | Z
/ The Stranglers / Black and White (1978) / In the Shadows bass tab

Intro:

G:-------------------------------------------|-----------------------------|
D:-------------------------------------------|-----------------------------|
A:-------------------------------------------|-----------------------------|
E:--0--2----5---5-5---5-5---5---8------0-2---|5---5-5---5-5---5---8--8--8--|


G:---------------------------|---------------------------------|
D:---------------------------|---------------------------------|
A:---------------------------|---------------------------------|
E:8--8--8--8--8--8--8--7--6--|5---5-5---5-5---5---8------0-2---|


G:---------------------------------|
D:---------------------------------|
A:---------------------------------|
E:5---5-5---5-5---3---0------0-2---|


Main Riff:

G:---------------------------------|---------------------------------|
D:---------------------------------|---------------------------------|
A:---------------------------------|---------------------------------|
E:5---5-5---5-5---5---8------0-2---|5---5-5---5-5---3---0------0-2---|


The Stranglers albums
2002 Laid Back
1998 Coup de Grace
1995 About Time
1990 10
1987 Dreamtime
1984 Aural Sculpture
1983 Feline
1981 The Meninblack
1981 La Folie
1979 The Raven
1978 Black and White
1977 No More Heroes
1977 Rattus Norvegicus
Black and White tabs
01Curfew tabbass tab
02Threatened tabbass tab
03In the Shadows tabbass tab
04Do You Wanna tabbass tab
06Enough Time tabbass tab
07Tank tabbass tab
08Nice 'N' Sleazy tabbass tab
09Outside Tokyo tabbass tab
10Hey! Rise of the Robots tabbass tab
11Sweden - All Quiet on the Eastern Front tabbass tab
12Toiler on the Sea tabbass tab

 

1