Search tabs:
Browse artists: 0-9 | A | B | C | D | E | F | G | H | I | J | K | L | M | N | O | P | Q | R | S | T | U | V | W | X | Y | Z
/ / / bass tab

The Stranglers - Toiler On The Sea
Tabbed By: Reecy
Email: Bushhead81@Hotmail.com

Tuning: Standard (E A D G)



SONG: Toiler On The Sea
 ARTIST: THE STRANGLERS
 ALBUM: Black And White
 BASSIST: JEAN JACQUES BURNEL
 TAB BY CHRIS@LOOPY0.DEMON.CO.UK


                                   (A)
G|----------------------------------|----------------------------------|
D|----------------------------------|----------------------------------|
A|----------------------------------|----------------------------------|
E|----5---5---5---0---5---5---5---0-|--5---5---5---0--5--5--5--5--5--0-|


                                   (B)
G|----------------------------------|----------------------------------|
D|----------------------------------|----------------------------------|
A|----------------------------------|----------------------------------|
E|----5---5---5---0---5---5---5---0-|--5---5---5---0--5--5--5--5--5--0-|


                                   (C)
G|----------------------------------|----------------------------------|
D|----------------------------------|----------------------------------|
A|----------------------------------|----------------------------------|
E|----5---5---5---0---5---5---5---0-|--5---5---5---0--5--5--5--5--5--0-|


                                   (D)
G|----------------------------------|----------------------------------|
D|----------------------------------|----------------------------------|
A|----------------------------------|----------------------------------|
E|-0---5---5---5---0---5---5---5----|-0---5---5---5---0---5---5---5----|


                                   (E)
G|----------------------------------|----------------------------------|
D|----------------------------------|----------------------------------|
A|----------------------------------|----------------------------------|
E|-0---5---5---5---0---5---5---5----|-0---5---5---5---0---5---5---5----|


                                   (F)
G|----------------------------------|----------------------------------|
D|----------------------------------|----------------------------------|
A|----------------------------------|----------------------------------|
E|-0---5---5---5---0---5---5---5----|-0---5---5---5---0---5---5---5----|


                                   (G)
G|----------------------------------|----------------------------------|
D|----------------------------------|----------------------------------|
A|-0---5---5---5---0---5---5---5----|-0---5---5---5---0---5---5---5----|
E|----------------------------------|----------------------------------|


                                   (H)
G|----------------------------------|----------------------------------|
D|----------------------------------|----------------------------------|
A|-0---3---3---3---0---3---3---3----|-0---3---3---3---0---3---3---3----|
E|----------------------------------|----------------------------------|


                                   (I)
G|----------------------------------|----------------------------------|
D|----------------------------------|----------------------------------|
A|----------------------------------|----------------------------------|
E|-0---3---3---3---0---3---3---3----|-0---3---3---3---0---3---3---3----|


                                   (J)
G|----------------------------------|----------------------------------|
D|----------------------------------|----------------------------------|
A|----------------------------------|----------------------------------|
E|-0---5---5---5---0---5---5---5----|-0---5---5---5---0---5---5---5----|

 REPEAT J, G, H, I, J, J


                                   (K)
G|----------------------------------|----------------------------------|
D|----------------------------------|----------------------------------|
A|-0---5---5---5---0---5---5---5----|-0---3---3---3---0---3---3---3----|
E|----------------------------------|----------------------------------|


                                   (L)
G|----------------------------------|----------------------------------|
D|----------------------------------|----------------------------------|
A|----------------------------------|----------------------------------|
E|-0---3---3---3---0---3---3---3----|-0---5---5---5---0---5---5---5----|

 REPEAT K L

                                   (M)
G|----------------------------------|----------------------------------|
D|----------------------------------|----------------------------------|
A|-0---3---3---3---0---3---3---3----|-0---5---5---5---0---5---5---5----|
E|----------------------------------|----------------------------------|
			

                                   (N)
G|----------------------------------|----------------------------------|
D|----------------------------------|----------------------------------|
A|----------------------------------|----------------------------------|
E|-0---3---3---3---0---3---3---3----|-0---3---3---3---0---3---3---3----|

 REPEAT M

                                   (O)
G|----------------------------------|----------------------------------|
D|----------------------------------|----------------------------------|
A|----------------------------------|----------------------------------|
E|-0---3---3---3---0---3---3---3----|-0---7---7---7---0---7---7---7----|


                                   (P)
G|----------------------------------|----------------------------------|
D|----------------------------------|----------------------------------|
A|----------------------------------|----------------------------------|
E|-0---3---3---3---0---3---3---3----|-0---7---7---7---0---7---7---7----|

 REPEAT K L K L M N M O P



                                   (Q)
G|----------------------------------|----------------------------------|
D|----------------------------------|----------------------------------|
A|-------3--3-----------------------|-------3--3-----------------------|
E|-5--5--------2--3--2--3--2--3--4--|-5--5--------2--3--2--3--2--3--4--|


                                   (R)
G|----------------------------------|----------------------------------|
D|-------------------3--5--4--5--4--|-------------------3--5--4--5--4--|
A|----------------5-----------------|----------------5-----------------|
E|-6--6--1--1--3--------------------|-6--6--1--1--3--------------------|


                                   (S)
G|----------------------------------|
D|----------------------------------|
A|----------------------------------|
E|-6--6--1--1-----------------------|


                               (VERSE RIFF)
                  G|-----------------------------------|
                  D|-----------------------------------|
                  A|-2---0-------0---2---2---0-------0-|
                  E|---------2-------------------2-----|

 REPEAT VERSE RIFF UNTIL


                                   (U)
G|----------------------------------|----------------------------------|
D|-2-2-2-2-2-2-0------------------0-|-2-2-2-2-2-0---------------------0-|
A|----------------4-2-2-2-2-2-2-4---|-------------4-2-0-0-0-0-0-0-0-4--|
E|----------------------------------|----------------------------------|


                                   (V)
G|----------------------------------|----------------------------------|
D|-2-2-2-2-2-2-0------------------0-|-2-2-2-2-2-0----------------------|
A|----------------4-2-2-2-2-2-2-4---|-------------4-2-0-0-0-0-0-0-0-0-0-|
E|----------------------------------|----------------------------------|

 REPEAT VERSE RIFF

 REPEAT U V

 REPEAT VERSE RIFF UNTIL

                                   (W)
G|----------------------------------|----------------------------------|
D|----------------------------------|----------------------------------|
A|-----------2--2---0--0--0---2--2--|-----------2--2---0--0--0--2--2---|
E|-2--2--2--------------------------|-2--2--2--------------------------|

 REPEAT W UNTIL THE SONG CHANGES BACK TO THE VERSE RIFF

 REPEAT VERSE RIFF UNTIL THE SONG FADES OUT


albums
tabs

 

1