Search tabs:
Browse artists: 0-9 | A | B | C | D | E | F | G | H | I | J | K | L | M | N | O | P | Q | R | S | T | U | V | W | X | Y | Z
/ / / bass tab

The Stranglers - In The End
Tabbed By: Reecy
Email: Bushhead81@Hotmail.com

Tuning: Standard (E A D G)



SONG: IN THE END
 ARTIST: THE STRANGLERS
 ALBUM: COUP DE GRACE
 BASSIST: JEAN JACQUES BURNEL
 TAB BY JOHNROSK@BTINTERNET.COM



			(A)
G|----------------------------------|---------------------------------|
D|----------------------------------|---------------------------------|
A|----------------------------------|---------------------------------|
E|--9-------------------------------|--9------------------------------|

REPEAT A
			(B)
G|----------------------------------|---------------------------------|
D|----------------------------------|---------------------------------|
A|----------------------------------|---------------------------------|
E|--5-------------------------------|--9------------------------7---S-|
							
			(C)
G|----------------------------------|---------------------------------|
D|----------------------------------|---------------------------------|
A|----------------------------------|---------------------------------|
E|--5-------------------------------|--9------------------------------|

			(D)
G|----------------------------------|---------------------------------|
D|----------------------------------|---------------------------------|
A|----------------------------------|---------------------------------|
E|--5---------------4---------------|--9------------------------------|

			(E)
G|----------------------------------|---------------------------------|
D|----------------------------------|---------------------------------|
A|----------------------------------|---------------------------------|
E|--5-------------------------------|--4------------------------------|

REPEAT B, C, E, E

			(F)
G|----------------------------------|---------------------------------|
D|----------------------------------|---------------------------------|
A|----------------------------------|---------------------------------|
E|--0-------------------------------|--2------------------------------|

			(G)
G|----------------------------------|---------------------------------|
D|----------------------------------|---------------------------------|
A|----------------------------------|---------------------------------|
E|--5-------------------------------|--7------------------------------|

REPEAT A, B, C, D, E

REPEAT B, C, D, E

REPEAT E, F, G, A

			(H)
G|----------------------------------|---------------------------------|
D|----------------------------------|---------------------------------|
A|----------------------------------|---------------------------------|
E|--10---------------12-----10------|--9-----------------------4------|

REPEAT H
			(I)
G|----------------------------------|---------------------------------|
D|----------------------------------|---------------------------------|
A|----------------------------------|---------------------------------|
E|--5----------------12------5------|--4----------------11-----4------|

			(J)
G|----------------------------------|---------------------------------|
D|----------------------------------|---------------------------------|
A|----------------------------------|---------------------------------|
E|--2-----------------9------2------|--12---------------7------12-----|

			(K)
G|----------------------------------|---------------------------------|
D|----------------------------------|---------------------------------|
A|----------------------------------|---------------------------------|
E|-16----------------12-------------|--10--------------5-------10-----|

			(L)
G|----------------------------------|---------------------------------|
D|----------------------------------|---------------------------------|
A|----------------------------------|---------------------------------|
E|--14---------------10-------------|--9------------------------------|

			(M)
G|----------------------------------|---------------------------------|
D|----------------------------------|---------------------------------|
A|----------------------------------|---------------------------------|
E|--9-------------------------------|--5------------------------------|

			(N)
G|----------------------------------|---------------------------------|
D|----------------------------------|---------------------------------|
A|----------------------------------|---------------------------------|
E|--9------------------------7---S--|--5------------------------------|

			(O)
G|----------------------------------|---------------------------------|
D|----------------------------------|---------------------------------|
A|----------------------------------|---------------------------------|
E|--9-------------------------------|--5---------------4--------------|

			(P)
G|----------------------------------|---------------------------------|
D|----------------------------------|---------------------------------|
A|----------------------------------|---------------------------------|
E|--9-------------------------------|--5------------------------------|

			(Q)
G|----------------------------------|---------------------------------|
D|----------------------------------|---------------------------------|
A|----------------------------------|---------------------------------|
E|--4-------------------------------|--5------------------------------|

			(R)
G|----------------------------------|---------------------------------|
D|----------------------------------|---------------------------------|
A|----------------------------------|---------------------------------|
E|--4-------------------------------|--0------------------------------|

			(S)
G|----------------------------------|---------------------------------|
D|----------------------------------|---------------------------------|
A|----------------------------------|---------------------------------|
E|--2-------------------------------|---5-----------------------------|

			(T)
G|----------------------------------|---------------------------------|
D|----------------------------------|---------------------------------|
A|----------------------------------|---------------------------------|
E|--7-------------------------------|--9------------------------------|


			(U)
G|----------------------------------|---------------------------------|
D|----------------------------------|---------------------------------|
A|----------------------------------|---------------------------------|
E|--9-------------------------------|--5-SLOW-TEMPO-------------------|


			(V)
G|----------------------------------|---------------------------------|
D|----------------------------------|---------------------------------|
A|----------------------------------|---------------------------------|
E|--7--SLOW-TEMPO-------------------|--9------------------------------|


			(W)
G|----------------------------------|---------------------------------|
D|----------------------------------|---------------------------------|
A|----------------------------------|---------------------------------|
E|--9-------------------------------|--9------------------------------|

			(X)
G|----------------------------------|---------------------------------|
D|----------------------------------|---------------------------------|
A|----------------------------------|---------------------------------|
E|--9--HOLD-------------------------|---------------------------------|


albums
tabs

 

1