Search tabs:
Browse artists: 0-9 | A | B | C | D | E | F | G | H | I | J | K | L | M | N | O | P | Q | R | S | T | U | V | W | X | Y | Z
/ The Stranglers / Dreamtime (1987) / Always the Sun bass tab

The Stranglers - Always The Sun
Tabbed By: Reecy
Email: Bushhead81@Hotmail.com

Tuning: Standard (E A D G)



SONG: ALWAYS THE SUN (SUNNY SIDE UP MIX)
 ARTIST: THE STRANGLERS
 ALBUM: THE HITMEN
 BASSIST: JEAN JACQUES BURNEL
 TAB BY CHRIS@LOOPY0.DEMON.CO.UK


                                   (A)
G|----------------------------------|----------------------------------|
D|----------------------------------|----------------------------------|
A|--5--5------------5--5------------|--5--5------------5--5------------|
E|----------3--3------------3-------|----------3--3------------3-------|

                                   (B)
G|---------------------7--6--4------|----------------------------------|
D|------------------7-----------5---|----------------------------------|
A|--5--5-----5--5-------------------|----------------------------------|
E|----------------------------------|-0--3----3----3----0---3---0------|


                                   (C)
G|---------------------7--6--4------|----------------------------------|
D|------------------7-----------5---|----------------------------------|
A|--5--5-----5--5-------------------|----------------------------------|
E|----------------------------------|-0--3----3----3----0---3---0------|


                                   (D)
G|----------------------------------|----------------------------------|
D|----------------------------------|----------------------------------|
A|----------------------------------|----------------------------------|
E|----5--5--0--5--0--3--3--0--3--0--|----5--5--0--5--0--3--3--0--3--0--|


                                   (E)
G|----------------------------------|----------------------------------|
D|----------------------------------|----------------------------------|
A|----------------------------------|----------------------------------|
E|----5--5--0--5--0--3--3--0--3--0--|----5--5--0--5--0--5--5--0--5--0--|


                                   (F)
G|---------------------7--6--4------|----------------------------------|
D|------------------7-----------5---|----------------------------------|
A|--5--5-----5--5-------------------|----------------------------------|
E|----------------------------------|-0--3----3----3----0---3---0------|


                                   (G)
G|---------------------7--6--4------|----------------------------------|
D|------------------7-----------5---|----------------------------------|
A|--5--5-----5--5-------------------|----------------------------------|
E|----------------------------------|-0--3----3----3----0---3---0------|


                                   (H)
G|----------------------------------|----------------------------------|
D|----------------------------------|----------------------------------|
A|----------------------------------|----------------------------------|
E|----5--5--0--5--0--3--3--0--3--0--|----5--5--0--5--3--0-0-0--5--3--0-|


                                   (I)
G|----------------------------------|----------------------------------|
D|----------------------------------|----------------------------------|
A|----------------------------------|----------------------------------|
E|---3---3---3---3---3---3---3---3--|---7---7---7---7---7---7---7---7--|


                                   (J)
G|----------------------------------|----------------------------------|
D|----------------------------------|----------------------------------|
A|----------------------------------|----------------------------------|
E|---5---5---5---5---5---5---5---5--|---5---5---5---5---5---5---5---5--|


                                   (K)
G|----------------------------------|----------------------------------|
D|----------------------------------|----------------------------------|
A|------------------5---5-5---5-5-5-|----------------------------------|
E|-7---7-7---7-7-7------------------|-3---3-3---3-3-3--7---7-7---7-7-7-|


                                   (L)
G|------------7----------------9----|----------------------------------|
D|---------7-----7----------9-----9-|----------------------------------|
A|-5--5-------------7--7------------|--10----10--10----10--10----------|
E|----------------------------------|----------------------------------|


                                   (M)
G|----7--9--7-----7-----------------|----------------------------------|
D|-------------9-----9--7--9--7-----|----5--7--5-----5-----------------|
A|----------------------------------|-------------7-----7--5--7--------|
E|----------------------------------|----------------------------------|
			

                                   (N)
                   G|----------------------------------|
		   D|----------------------------------|
		   A|--5--5------------5--5------------|
		   E|----------3--3------------3--3----|


                                   (O)
G|---------------------7--6--4------|----------------------------------|
D|------------------7-----------5---|----------------------------------|
A|--5--5-----5--5-------------------|----------------------------------|
E|----------------------------------|-0--3----3----3----0---3---0------|


                                   (P)
G|---------------------7--6--4------|----------------------------------|
D|------------------7-----------5---|----------------------------------|
A|--5--5-----5--5-------------------|----------------------------------|
E|----------------------------------|-0--3----3----3----0---3---0------|


                                   (Q)
G|----------------------------------|----------------------------------|
D|----------------------------------|----------------------------------|
A|----------------------------------|----------------------------------|
E|----5--5--0--5--0--3--3--0--3--0--|----5--5--0--5--3--0-0-0--5--3--0-|


                                   (R)
G|----------------------------------|----------------------------------|
D|----------------------------------|----------------------------------|
A|----------------------------------|----------------------------------|
E|---3---3---3---3---3---3---3---3--|---7---7---7---7---7---7---7---7--|


                                   (S)
G|----------------------------------|----------------------------------|
D|----------------------------------|----------------------------------|
A|----------------------------------|----------------------------------|
E|---5---5---5---5---5---5---5---5--|---5---5---5---5---5---5---5---5--|


                                   (T)
G|----------------------------------|----------------------------------|
D|----------------------------------|----------------------------------|
A|------------------5---5-5---5-5-5-|----------------------------------|
E|-7---7-7---7-7-7------------------|-3---3-3---3-3-3--7---7-7---7-7-7-|


                                   (U)
G|------------7----------------9----|----------------------------------|
D|---------7-----7----------9-----9-|----------------------------------|
A|-5--5-------------7--7------------|--10----10--10----10--10----------|
E|----------------------------------|----------------------------------|


                                   (V)
G|----7--9--7-----7-----------------|----------------------------------|
D|-------------9-----9--7--9--7-----|----5--7--5-----5-----------------|
A|----------------------------------|-------------7-----7--5--7--------|
E|----------------------------------|----------------------------------|


                                   (W)
G|----------------------------------|----------------------------------|
D|----------------------------------|----------------------------------|
A|------------------5---5-5---5-5-5-|----------------------------------|
E|-7---7-7---7-7-7------------------|-3---3-3---3-3-3--7---7-7---7-7-7-|


                                   (X)
G|------------7----------------9----|----------------------------------|
D|---------7-----7----------9-----9-|----------------------------------|
A|-5--5-------------7--7------------|--10----10--10----10--10----------|
E|----------------------------------|----------------------------------|


                                   (Y)
G|----7--9--7-----7-----------------|----------------------------------|
D|-------------9-----9--7--9--7-----|----5--7--5-----5-----------------|
A|----------------------------------|-------------7-----7--5--7--------|
E|----------------------------------|----------------------------------|


                                   (Z)
G|---------------------7--6--4------|----------------------------------|
D|------------------7-----------5---|----------------------------------|
A|--5--5-----5--5-------------------|----------------------------------|
E|----------------------------------|-0--3----3----3----0---3---0------|


                                   (AA)
G|---------------------7--6--4------|----------------------------------|
D|------------------7-----------5---|----------------------------------|
A|--5--5-----5--5-------------------|----------------------------------|
E|----------------------------------|-0--3----3----3----0---3---0------|


                                   (AB)
G|----------------------------------|----------------------------------|
D|----------------------------------|----------------------------------|
A|----------------------------------|----------------------------------|
E|----5--5--0--5--0--3--3--0--3--0--|----5--5--0--5--0--3--3--0--3--0--|


                                   (AC)
G|----------------------------------|----------------------------------|
D|----------------------------------|----------------------------------|
A|----------------------------------|----------------------------------|
E|----5--5--0--5--0--3--3--0--3--0--|-5-5-5-5-5-5-5-5-5-5-5-5-5-5-5-5--|


                                   (AD)
G|----------------------------------|----------------------------------|
D|----------------------------------|----------------------------------|
A|------------------5---5-5---5-5-5-|----------------------------------|
E|-7---7-7---7-7-7------------------|-3---3-3---3-3-3--7---7-7---7-7-7-|


                                   (AE)
G|----------------------------------|----------------------------------|
D|----------------------------------|----------------------------------|
A|-5--5---5-5---------7--7---7-7----|--10----10--10----10--10----------|
E|----------------------------------|----------------------------------|


                                   (AF)
G|----------------------------------|----------------------------------|
D|----------------------------------|----------------------------------|
A|-12--12--12--12--12--12--12--12---|-12--12--12--12--12--12--12--12---|
E|----------------------------------|----------------------------------|


                                   (AG)
G|----------------------------------|----------------------------------|
D|----------------------------------|----------------------------------|
A|------------------5---5-5---5-5-5-|----------------------------------|
E|-7---7-7---7-7-7------------------|-3---3-3---3-3-3--7---7-7---7-7-7-|


                                   (AH)
G|------------7----------------9----|----------------------------------|
D|---------7-----7----------9-----9-|----------------------------------|
A|-5--5-------------7--7------------|--10----10--10----10--10----------|
E|----------------------------------|----------------------------------|


                                   (AI)
G|----7--9--7-----7-----------------|----------------------------------|
D|-------------9-----9--7--9--7-----|----5--7--5-----5-----------------|
A|----------------------------------|-------------7-----7--5--7--------|
E|----------------------------------|----------------------------------|


                                   (AJ)
G|----------------------------------|----------------------------------|
D|----------------------------------|----------------------------------|
A|------------------5---5-5---5-5-5-|----------------------------------|
E|-7---7-7---7-7-7------------------|-3---3-3---3-3-3--7---7-7---7-7-7-|


                                   (AK)
G|------------7----------------9----|----------------------------------|
D|---------7-----7----------9-----9-|----------------------------------|
A|-5--5-------------7--7------------|--10----10--10----10--10----------|
E|----------------------------------|----------------------------------|


                                   (AL)
G|----7--9--7-----7-----------------|----------------------------------|
D|-------------9-----9--7--9--7-----|----5--7--5-----5-----------------|
A|----------------------------------|-------------7-----7--5--7--------|
E|----------------------------------|----------------------------------|


The Stranglers albums
2002 Laid Back
1998 Coup de Grace
1995 About Time
1990 10
1987 Dreamtime
1984 Aural Sculpture
1983 Feline
1981 The Meninblack
1981 La Folie
1979 The Raven
1978 Black and White
1977 No More Heroes
1977 Rattus Norvegicus
Dreamtime tabs
01Always the Sun tabbass tab
02Dreamtime tabbass tab
03Was It You? tabbass tab
04You'll Always Reap What You Sow tabbass tab
06Nice in Nice tabbass tab
07Big in America tabbass tab
08Shakin' Like a Leaf tabbass tab
09Mayan Skies tabbass tab

 

1