Search tabs:
Browse artists: 0-9 | A | B | C | D | E | F | G | H | I | J | K | L | M | N | O | P | Q | R | S | T | U | V | W | X | Y | Z
/ / / bass tab

The Stranglers - Blue Sister
Tabbed By: Reecy
Email: Bushhead81@Hotmail.com

Tuning: Standard (E A D G)



 SONG: BLUE SISTER
 ARTIST: THE STRANGLERS
 ALBUM: FELINE
 BASSIST: JEAN JACQUES BURNEL
 TAB BY CHRIS@LOOPY0.DEMON.CO.UK


                                   (A)
G|----------------------------------|----------------------------------|
D|----------------------------------|----------------------------------|
A|-5--5---0-5--5--5---0-5--5--5-----|-0-5--5--5---0-5--5--5---0-5--5--5|
E|----------------------------------|----------------------------------|
			

                                   (B)
G|----------------------------------|----------------------------------|
D|----------------------------------|----------------------------------|
A|-0-5--5--5---0-5--5--5---0-5--5--5|--0-5--5--5---0-5--5--5---0-5--5--5|
E|----------------------------------|----------------------------------|


                                   (C)
G|----------------------------------|----------------------------------|
D|----------------------------------|----------------------------------|
A|-0-5--5---0-5--5--5---0-5--5------|-0-5--5--5---0-3--3---0-3--3--3---|
E|----------------------------------|----------------------------------|


                                   (D)
G|----------------------------------|----------------------------------|
D|----------------------------------|----------------------------------|
A|-0-3--3---0-3--3--3---0-3--3------|-0-3--3--3---0-3--3---0-3--3--3---|
E|----------------------------------|----------------------------------|


                                   (E)
G|----------------------------------|----------------------------------|
D|----------------------------------|----------------------------------|
A|-0-5--5---0-5--5--5---0-5--5------|-0-5--5--5---0-5--5---0-5--5--5---|
E|----------------------------------|----------------------------------|


                                   (F)
G|----------------------------------|----------------------------------|
D|----------------------------------|----------------------------------|
A|-0-5--5---0-5--5--5---0--3--3-----|-0-3--3--3---0-3--3---0-3--3--3---|
E|----------------------------------|----------------------------------|


                                   (G)
G|----------------------------------|----------------------------------|
D|----------------------------------|----------------------------------|
A|-0-3--3---0-3--3--3---0-3--3------|-0-3--3--3---0-5--5---0-5--5--5---|
E|----------------------------------|----------------------------------|


                                   (H)
G|----------------------------------|----------------------------------|
D|----------------------------------|----------------------------------|
A|-0-5--5---0-5--5--5---0-5--5------|-0-5--5--5---0-5--5---0-5--5--5---|
E|----------------------------------|----------------------------------|


                                   (I)
G|----------------------------------|----------------------------------|
D|-------------------------5--3--2--|-------------------------7--5--3--|
A|-5--5---0-5--5---0-3--3-----------|-5--5---0-5--5---0-3--3-----------|
E|----------------------------------|----------------------------------|


                                   (J)
G|----------------------------------|----------------------------------|
D|-------------------------5--3--2--|----------------------------------|
A|-5--5---0-5--5---0-3--3-----------|-5--5---0-5--5---0-3--3-----------|
E|----------------------------------|--------------------------5--5--5-|


                                   (K)
G|----------------------------------|----------------------------------|
D|-------------------------5--3--2--|-------------------------7--5--3--|
A|-5--5---0-5--5---0-3--3-----------|-5--5---0-5--5---0-3--3-----------|
E|----------------------------------|----------------------------------|


                                   (L)
G|----------------------------------|----------------------------------|
D|-------------------------5--3--2--|----------------------------------|
A|-5--5---0-5--5---0-3--3-----------|-5--5---0-5--5---0-3--3-----------|
E|----------------------------------|--------------------------5--5--5-|


                                   (M)
G|--------2-------------------------|--------2-----------------5--3--2-|
D|----0-3----5-3-------0-3----------|----0-3----5-3---7--5--3----------|
A|-1-----------------1-------3-1-0--|-1--------------------------------|
E|----------------------------------|----------------------------------|
			

                                   (N)
G|----------------------------------|----------------------------------|
D|----------------------------------|----------------------------------|
A|----------------------------------|----------------------------------|
E|--6--0--3--5--5----6--0--3--5--5--|------5--5------5--5--------------|


                                   (O)
G|----------------------------------|----------------------------------|
D|-------------------------5--3--2--|-------------------------7--5--3--|
A|-5--5---0-5--5---0-3--3-----------|-5--5---0-5--5---0-3--3-----------|
E|----------------------------------|----------------------------------|


                                   (P)
G|----------------------------------|----------------------------------|
D|-------------------------5--3--2--|----------------------------------|
A|-5--5---0-5--5---0-3--3-----------|-5--5---0-5--5---0-3--3-----------|
E|----------------------------------|--------------------------5--5--5-|


                                   (Q)
G|----------------------------------|----------------------------------|
D|-------------------------5--3--2--|-------------------------7--5--3--|
A|-5--5---0-5--5---0-3--3-----------|-5--5---0-5--5---0-3--3-----------|
E|----------------------------------|----------------------------------|


                                   (R)
G|----------------------------------|----------------------------------|
D|-------------------------5--3--2--|----------------------------------|
A|-5--5---0-5--5---0-3--3-----------|-5--5---0-5--5---0-3--3-----------|
E|----------------------------------|--------------------------5--5--5-|


                                   (S)
G|--------2-------------------------|--------2-----------------5--3--2-|
D|----0-3----5-3-------0-3----------|----0-3----5-3---7--5--3----------|
A|-1-----------------1-------3-1-0--|-1--------------------------------|
E|----------------------------------|----------------------------------|
			

                                   (T)
G|----------------------------------|----------------------------------|
D|----------------------------------|----------------------------------|
A|-5---3---7---------5---3---7------|---5---3---7---------5---3---7----|
E|----------------------------------|----------------------------------|


                                   (U)
G|----------------------------------|----------------------------------|
D|----------------------------------|----------------------------------|
A|-5---3---7--------5---3---7-------|---5---3---7---------5---3---7----|
E|----------------------------------|----------------------------------|


                                   (V)
G|----------------------------------|----------------------------------|
D|-------------------------5--3--2--|-------------------------7--5--3--|
A|-5--5---0-5--5---0-3--3-----------|-5--5---0-5--5---0-3--3-----------|
E|----------------------------------|----------------------------------|


                                   (W)
G|----------------------------------|----------------------------------|
D|-------------------------5--3--2--|----------------------------------|
A|-5--5---0-5--5---0-3--3-----------|-5--5---0-5--5---0-3--3-----------|
E|----------------------------------|--------------------------5--5--5-|


                                   (X)
G|----------------------------------|----------------------------------|
D|-------------------------5--3--2--|-------------------------7--5--3--|
A|-5--5---0-5--5---0-3--3-----------|-5--5---0-5--5---0-3--3-----------|
E|----------------------------------|----------------------------------|


                                   (Y)
G|----------------------------------|----------------------------------|
D|-------------------------5--3--2--|----------------------------------|
A|-5--5---0-5--5---0-3--3-----------|-5--5---0-5--5---0-3--3-----------|
E|----------------------------------|--------------------------5--5--5-|


                                   (Z)
G|--------2-------------------------|--------2-----------------5--3--2-|
D|----0-3----5-3-------0-3----------|----0-3----5-3---7--5--3----------|
A|-1-----------------1-------3-1-0--|-1--------------------------------|
E|----------------------------------|----------------------------------|
			

                                   (AA)
G|----------------------------------|----------------------------------|
D|----------------------------------|----------------------------------|
A|----------------------------------|----------------------------------|
E|--6--0--3--5--5----6--0--3--5--5--|------5--5------5--5--------------|


                                   (AB)
G|----------------------------------|----------------------------------|
D|-------------------------5--3--2--|-------------------------7--5--3--|
A|-5--5---0-5--5---0-3--3-----------|-5--5---0-5--5---0-3--3-----------|
E|----------------------------------|----------------------------------|


                                   (AC)
G|----------------------------------|----------------------------------|
D|-------------------------5--3--2--|-------------------------7--5--3--|
A|-5--5---0-5--5---0-3--3-----------|-5--5---0-5--5---0-3--3-----------|
E|----------------------------------|----------------------------------|


                                  (AD)

G|----------------------------------|----------------------------------|
D|-------------------------7--5--3--|-------------------------8--7--5--|
A|-5--5---0-5--5---0-3--3-----------|-5--5---0-5--5---0-3--3-----------|
E|----------------------------------|----------------------------------|


                                   (AE)
G|----------------------------------|----------------------------------|
D|------------------------10--8--7--|-------------------------5--3--2--|
A|-5--5---0-5--5---0-3--3-----------|-5--5---0-5--5---0-3--3-----------|
E|----------------------------------|----------------------------------|

 REPEAT AB TO AE AS THE SONG FADES OUT


albums
tabs

 

1