Search tabs:
Browse artists: 0-9 | A | B | C | D | E | F | G | H | I | J | K | L | M | N | O | P | Q | R | S | T | U | V | W | X | Y | Z
/ / / bass tab

The Stranglers - Paradise
Tabbed By: Reecy
Email: Bushhead81@Hotmail.com

Tuning: Standard (E A D G)



SONG:PARADISE
 ARTIST: THE STRANGLERS
 ALBUM: FELINE
 BASSIST: JEAN JACQUES BURNEL
 TAB BY CHRIS@LOOPY0.DEMON.CO.UK


                                   (A)
G|----------------------------------|----------------------------------|
D|----------------------------------|----------------------------------|
A|-------------3--3--3--------------|-------------3--3--3--------------|
E|-5---5--5--------------5--5-------|-5---5--5--------------5--5-------|
			

                                   (B)
G|----------------------------------|----------------------------------|
D|----------------------------------|----------------------------------|
A|-5--5----5--5-----3--3--3---------|-5--5----5--5-----3--3--3---------|
E|----------------------------5--5--|----------------------------5--5--|


                                   (C)
G|----------------------------------|----------------------------------|
D|----------------------------------|----------------------------------|
A|-5--5----5--5-----3--3--3---------|-5--5----5--5-----3--3--3---------|
E|----------------------------5--5--|----------------------------5--5--|


                                   (D)
G|----------------------------------|----------------------------------|
D|----------------------------------|----------------------------------|
A|-5--5----5--5-----3--3--3---------|-5--5----5--5-----3--3--3---------|
E|----------------------------5--5--|----------------------------5--5--|


                                   (E)
G|----------------------------------|----------------------------------|
D|----------------------------------|----------------------------------|
A|-2--2----2--2---------------------|-2--2----2--2---------------------|
E|-----------------3--3----3--3-----|-----------------3--3----3--3-----|


                                   (F)
G|----------------------------------|----------------------------------|
D|----------------------------------|----------------------------------|
A|-2--2----2--2---------------------|-2--2---2--2-----------------2--4-|
E|-----------------3--3----3--3-----|--------------3--3--3--3--3-------|


                                   (G)
G|----------------------------------|----------------------------------|
D|----------------------------------|----------------------------------|
A|-5-5---0-5-5---0-4-4---0-4-4---0-2|-2---0-2-2---0-2-2---0-2-0-2-4----|
E|----------------------------------|----------------------------------|


                                   (H)
G|----------------------------------|----------------------------------|
D|----------------------------------|----------------------------------|
A|-5-5---0-5-5---5------------------|----------------------------------|
E|-------------------2-2---0--2-2---|-0-5-5---0-5-5---0-5-3-3-3-2-0----|


                                   (I)
G|----------------------------------|----------------------------------|
D|----------------------------------|----------------------------------|
A|-5--5----5--5-----3--3--3---------|-5--5----5--5-----3--3--3---------|
E|----------------------------5--5--|----------------------------5--5--|


                                   (J)
G|----------------------------------|----------------------------------|
D|----------------------------------|----------------------------------|
A|-5--5----5--5-----3--3--3---------|-5--5----5--5-----3--3--3---------|
E|----------------------------5--5--|----------------------------5--5--|


                                   (K)
G|----------------------------------|----------------------------------|
D|----------------------------------|----------------------------------|
A|-2--2----2--2---------------------|-2--2----2--2---------------------|
E|-----------------3--3----3--3-----|-----------------3--3----3--3-----|


                                   (L)
G|----------------------------------|----------------------------------|
D|----------------------------------|----------------------------------|
A|-2--2----2--2---------------------|-2--2---2--2-----------------2--4-|
E|-----------------3--3----3--3-----|--------------3--3--3--3--3-------|


                                   (M)
G|----------------------------------|----------------------------------|
D|----------------------------------|----------------------------------|
A|-5-5---0-5-5---0-4-4---0-4-4---0-2|-2---0-2-2---0-2-2---0-2-0-2-4----|
E|----------------------------------|----------------------------------|


                                   (N)
G|----------------------------------|----------------------------------|
D|----------------------------------|----------------------------------|
A|-5-5---0-5-5---5------------------|----------------------------------|
E|-------------------2-2---0--2-2---|-0-5-5---0-5-5---0-5-3-3-3-2-0----|
			

                                   (O)
G|----------------------------------|----------------------------------|
D|----------------------------------|----------------------------------|
A|-5--5----5--5-----3--3--3---------|-5--5----5--5-----3--3--3---------|
E|----------------------------5--5--|----------------------------5--5--|


                                   (P)
G|----------------------------------|----------------------------------|
D|----------------------------------|----------------------------------|
A|-5--5----5--5-----3--3--3---------|-5--5----5--5-----3--3--3---------|
E|----------------------------5--5--|----------------------------5--5--|


                                   (Q)
G|----------------------------------|----------------------------------|
D|----------------------------------|----------------------------------|
A|-2--2----2--2---------------------|-2--2----2--2---------------------|
E|-----------------3--3----3--3-----|-----------------3--3----3--3-----|


                                   (R)
G|----------------------------------|----------------------------------|
D|----------------------------------|----------------------------------|
A|-2--2----2--2---------------------|-2--2---2--2-----------------2--4-|
E|-----------------3--3----3--3-----|--------------3--3--3--3--3-------|


                                   (S)
G|----------------------------------|----------------------------------|
D|----------------------------------|----------------------------------|
A|-5-5---0-5-5---0-4-4---0-4-4---0-2|-2---0-2-2---0-2-2---0-2-0-2-4----|
E|----------------------------------|----------------------------------|


                                   (T)
G|----------------------------------|----------------------------------|
D|----------------------------------|----------------------------------|
A|-5-5---0-5-5---5------------------|----------------------------------|
E|-------------------2-2---0--2-2---|-0-5-5---0-5-5---0-5-3-3-3-2-0----|

 REPEAT S & T UNTIL THE SONG FADES OUT


albums
tabs

 

1