Search tabs:
Browse artists: 0-9 | A | B | C | D | E | F | G | H | I | J | K | L | M | N | O | P | Q | R | S | T | U | V | W | X | Y | Z
/ / / bass tab

The Stranglers - La Folie
Tabbed By: Reecy
Email: Bushhead81@Hotmail.com

Tuning: Standard (E A D G)



SOMG: LA FOLIE
 ARTIST: THE STRANGLERS
 ALBUM: LA FOLIE
 BASSIST: JEAN JACQUES BURNEL
 TAB BY CHRIS@LOOPY0.DEMON.CO.UK

 (H)= HAMMER ON

 (P)= PAUSE

 (P0)= PULL OFF

 (8)= DO NOT PICK

  S= SLIDE

 BASS COMES IN AT 23 SECONDS
                                   (A)
G|----------------------------------|----------------------------------|
D|----------------------------------|------------------2-(H)-4-(P0)-2--|
A|-2-HOLD---------------------------|-7-HOLD---------------------------|
E|----------------------------------|----------------------------------|


                                   (B)
G|----------------------------------|----------------------------------|
D|----------------------------------|----------------------9--8--6-S\--|
A|-2-HOLD---------------------------|-7-HOLD---------------------------|
E|----------------------------------|----------------------------------|


                                   (C)
G|----------------------------------|-----------------11--9--8--8-9-8--|
D|----------------------------------|--------------9-------------------|
A|-2-HOLD---------------------------|-7-HOLD---------------------------|
E|----------------------------------|----------------------------------|


                                   (D)
G|----------------------------------|----------------------------------|
D|----------------------------------|-------------------9--8--6--4-S\--|
A|-2-HOLD---------------------------|-7-HOLD---------------------------|
E|----------------------------------|----------------------------------|


                                   (E)
G|------------------11-----11--13---|-------------------11--9--8-S\----|
D|---------------9------9-----------|----------------------------------|
A|-2-HOLD---------------------------|-7-HOLD---------------------------|
E|----------------------------------|----------------------------------|


                                   (F)
G|----------------------------------|----------------------------------|
D|---------------9--9---9--9-(8)-S\-|---------------9---9---9-8-6-4-S\-|
A|----------------------------------|-7-HOLD---------------------------|
E|----------------------------------|----------------------------------|


                                   (G)
G|----------------------------------|----------------------------------|
D|----------------------------------|----------------------------------|
A|----------------------------------|----------------------------------|
E|----4---4--4---2-----0-HOLD-------|----4---4--4---2-----0-HOLD-------|


                                   (H)
G|----------------------------------|----------------------------------|
D|----------------------------------|----------------------------------|
A|----------------------------------|----------------------------------|
E|--5---5--5--4--4--2--2--0--2--4---|--5---5--5--4--4--2--2--0--2--4---|


                                   (I)
G|----------------------------------|----------------------------------|
D|----------------------------------|----------------------------------|
A|----------------------------------|----------------------------------|
E|--5---5--5--4--4--2--2--0--2--4---|--5---5--5--4--4--2--2---2---2--2-|


                                   (J)
G|----------------------------------|
D|----------------------------------|
A|----------------------------------|
E|-2---2--2----2---2--2-------------|


                                   (K)
G|----------------------------------|----------------------------------|
D|----------------------------------|-------4--2--(2)-(P)-2-S/-4-S\(2)-|
A|-2-HOLD------------------2-S/-----|-7-HOLD---------------------------|
E|----------------------------------|----------------------------------|


                                   (L)
G|----------4-S/-14--------4-S/-14--|----------------------------------|
D|-------------------(P)------------|-------9--8--6--4--2-S/-4-S\-2----|
A|-2-HOLD---2-S/-12--------2-S/-12--|-7-HOLD---------------------------|
E|----------------------------------|----------------------------------|


                                   (M)
G|-----------11----11---11---11--9--|-8--------------------------------|
D|---------9----9----9-----9--------|---9--------9--8--6--2-(H)-4-(PO)-2|
A|-2-HOLD---------------------------|------7-HOLD----------------------|
E|----------------------------------|----------------------------------|
			

                                   (N)
G|----------------------------------|----------------------------------|
D|----------------------------------|----------------------------------|
A|-2-HOLD---------------------------|-7-HOLD----2-S/-7------2-S/-7-----|
E|--------------4-S/-7------4-S/-7--|------------------------------5---|


                                   (O)
G|----------------------------------|----------------------------------|
D|----------------------------------|----------------------------------|
A|----------------------------------|----------------------------------|
E|----4---4--4---2-----0-HOLD-------|----4---4--4---2-----0-HOLD-------|


                                   (P)
G|----------------------------------|----------------------------------|
D|----------------------------------|----------------------------------|
A|----------------------------------|----------------------------------|
E|--5---5--5--4--4--2--2--0--2--4---|--5---5--5--4--4--2--2--0--2--4---|


                                   (Q)
G|----------------------------------|----------------------------------|
D|----------------------------------|----------------------------------|
A|----------------------------------|----------------------------------|
E|--5---5--5--4--4--2--2--0--2--4---|--5---5--5--4--4--2--2---2---2--2-|


                                   (R)
G|----------------------------------|
D|----------------------------------|
A|----------------------------------|
E|-2---2--2----2---2--2-------------|


                                   (S)
G|----------------------------------|----------------------------------|
D|----------------------------------|----------------------------------|
A|----------------------------------|----------------------------------|
E|-8---8--8--7--5---5--5--4--5--7---|-8---8--8--7--5---5--5--4--5--7---|


                                   (T)
G|----------------------------------|----------------------------------|
D|----------------------------------|----------------------------------|
A|----------------------------------|----------------------------------|
E|-8---8--8--7--5---5--5--4--4--2--2|---2---2--2---2---2--2---2---2--2-|


                                   (U)
G|----------------------8-9-S/-11---|----------------------6-7-S/-9----|
D|-----------6-8-S/-9---------------|-----------4-6-S/-7---------------|
A|-2-HOLD---------------------------|-7-HOLD---------------------------|
E|----------------------------------|----------------------------------|


                                   (V)
G|----------------------8-9-S/-11---|----------------------8-9-S/-11---|
D|-----------6-8-S/-9---------------|-----------6-8-S/-9---------------|
A|-2-HOLD---------------------------|----------------------------------|
E|----------------------------------|----------------------------------|


                                   (W)
G|------------------------6-7-S/-9--|----------------------6-7-S/-9----|
D|-------------4-6-S/-7-------------|-----------4-6-S/-7---------------|
A|-7-HOLD---------------------------|----------------------------------|
E|----------------------------------|----------------------------------|


                                   (X)
G|------------------8-9-S/-11---------8-9-S/-11----------8-9-S/-11-----|
D|---------6-8-S/-9-----------6-8-S/-9----------6-8-S/-9---------------|
A|-2-HOLD--------------------------------------------------------------|
E|---------------------------------------------------------------------|


                                   (Y)
G|------------------6-7-S/-9----------6-7-S/-9----------6-7-S/-9-------|
D|---------4-6-S/-7----------4-6-S/-7----------4-6-S/-7-----------7----|
A|-7-HOLD--------------------------------------------------------------|
E|---------------------------------------------------------------------|

                                   (Z)
G|----------------------------------|------------------9---------------|
D|----------------------------------|--------------7-------7-----------|
A|-2-HOLD-------------2-------------|-7-HOLD---------------------------|
E|---------------4------------------|----------------------------------|


                                   (AA)
G|----------------------------------|----------------------------------|
D|----------------------------------|----------------------------------|
A|----------------------------------|----------------------------------|
E|----4---4--4---2-----0-HOLD-------|----4---4--4---2-----0-HOLD-------|


                                   (AB)
G|----------------------------------|----------------------------------|
D|----------------------------------|----------------------------------|
A|----------------------------------|----------------------------------|
E|--5---5--5--4--4--2--2--0--2--4---|--5---5--5--4--4--2--2--0--2--4---|


                                   (AC)
G|----------------------------------|----------------------------------|
D|----------------------------------|----------------------------------|
A|----------------------------------|----------------------------------|
E|--5---5--5--4--4--2--2--0--2--4---|--5---5--5--4--4--2--2---2---2--2-|


                                   (AD)
G|----------------------------------|----------------------------------|
D|----------------------------------|----------------------------------|
A|----------------------------------|----------------------------------|
E|-2---2--2----2---2--2---2---2--2--|-2---2--2----2---2--2---2---2--2--|

 REPEAT AD UNTIL THE SONG FADES OUT


albums
tabs

 

1