Search tabs:
Browse artists: 0-9 | A | B | C | D | E | F | G | H | I | J | K | L | M | N | O | P | Q | R | S | T | U | V | W | X | Y | Z
/ / / bass tab

The Stranglers - Let Me Introduce You To The Family
Tabbed By: Reecy
Email: Bushhead81@Hotmail.com

Tuning: Standard (E A D G)



 SONG: LET ME INTRODUCE YOU TO THE FAMILY
 ARTIST: THE STRANGLERS
 ALBUM: LA FOLIE
 BASSIST: JEAN JACQUES BURNEL
 TAB BY CHRIS@LOOPY0.DEMON.CO.UK

 BASS STARTS BY SLIDING DOWN FROM THE 20TH FRET OF THE G STRING MOVING
 YOUR FINGER BACK AND FORTH
                                   (A)
G|----------------------------------|----------------------------------|
D|----------------------------------|----------------------------------|
A|----------------------------------|----------------------------------|
E|-3--3--3-3-3-3-3--3-3--3--0-1-2-3-|-3--3--3-3-3-3-3--3-3--3--0-1-2-3-|


                                   (B)
G|----------------------------------|----------------------------------|
D|----------------------------------|----------------------------------|
A|----------------------------------|----------------------------------|
E|-3--3--3-3-3-3-3--3-3--3--0-1-2-3-|-3--3--3-3-3-3-3--3-3--3--0-1-2-3-|


                                   (C)
G|----------------------------------|----------------------------------|
D|----------------------------------|----------------------------------|
A|----------------------------------|----------------------------------|
E|-3--3--3-3-3-3-3--3-3--3--0-1-2-3-|-3--3--3-3-3-3-3--3-3--3--0-1-2-3-|


                                   (D)
G|----------------------------------|----------------------------------|
D|----------------------------------|----------------------------------|
A|----------------------------------|----------------------------------|
E|-3--3--3-3-3-3-3--3-3--3--0-1-2-3-|-3--3--3-3-3-3-3--3-3--3--0-1-2-3-|


                                   (E)
G|----------------------------------|----------------------------------|
D|----------------------------------|----------------------------------|
A|----------------------------------|----------------------------------|
E|-3--3--3-3-3-3-3--3-3--3--0-1-2-3-|-3--3--3-3-3-3-3--3-3--3--0-1-2-3-|


                                   (F)
G|----------------------------------|----------------------------------|
D|----------------------------------|----------------------------------|
A|------------------3--3--3-3-3-3-3-|------------------1--1--1-1-1-1-1-|
E|-5--5--5-5-5-5-5------------------|-1--1--1-1-1-1-1------------------|


                                   (G)
G|----------------------------------|----------------------------------|
D|----------------------------------|----------------------------------|
A|------------------3--3--3-3-3-3-3-|------------------1--1--1-1-1-1-1-|
E|-5--5--5-5-5-5-5------------------|-1--1--1-1-1-1-1------------------|


                                   (H)
G|----------------------------------|----------------------------------|
D|----------------------------------|----------------------------------|
A|----------------------------------|----------------------------------|
E|-3--3--3-3-3-3-3--3-3--3--0-1-2-3-|-3--3--3-3-3-3-3--3-3--3--0-1-2-3-|


                                   (I)
G|----------------------------------|----------------------------------|
D|----------------------------------|----------------------------------|
A|----------------------------------|----------------------------------|
E|-3--3--3-3-3-3-3--3-3--3--0-1-2-3-|-3--3--3-3-3-3-3--3-3--3--0-1-2-3-|


                                   (J)
G|----------------------------------|----------------------------------|
D|----------------------------------|----------------------------------|
A|----------------------------------|----------------------------------|
E|-3--3--3-3-3-3-3--3-3--3--0-1-2-3-|-3--3--3-3-3-3-3--3-3--3--0-1-2-3-|


                                   (K)
G|----------------------------------|----------------------------------|
D|----------------------------------|----------------------------------|
A|----------------------------------|----------------------------------|
E|-3--3--3-3-3-3-3--3-3--3--0-1-2-3-|-3--3--3-3-3-3-3--3-3--3--0-1-2-3-|


                                   (L)
G|----------------------------------|----------------------------------|
D|----------------------------------|----------------------------------|
A|------------------3--3--3-3-3-3-3-|------------------1--1--1-1-1-1-1-|
E|-5--5--5-5-5-5-5------------------|-1--1--1-1-1-1-1------------------|


                                   (M)
G|----------------------------------|----------------------------------|
D|----------------------------------|----------------------------------|
A|------------------3--3--3-3-3-3-3-|------------------1--1--1-1-1-1-1-|
E|-5--5--5-5-5-5-5------------------|-1--1--1-1-1-1-1------------------|
			

                                   (N)
G|----------------------------------|----------------------------------|
D|----------------------------------|----------------------------------|
A|------------------3--3--3-3-3-3-3-|------------------1--1--1-1-1-1-1-|
E|-5--5--5-5-5-5-5------------------|-1--1--1-1-1-1-1------------------|


                                   (O)
G|----------------------------------|----------------------------------|
D|----------------------------------|----------------------------------|
A|----------------------------------|----------------------------------|
E|-3--3--3-3-3-3-3--3-3--3--0-1-2-3-|-3--3--3-3-3-3-3--3-3--3--0-1-2-3-|


                                   (P)
G|----------------------------------|----------------------------------|
D|----------------------------------|----------------------------------|
A|----------------------------------|----------------------------------|
E|-3--3--3-3-3-3-3--3-3--3--0-1-2-3-|-3--3--3-3-3-3-3--3-3--3--0-1-2-3-|


                                   (Q)
G|----------------------------------|----------------------------------|
D|----------------------------------|----------------------------------|
A|----------------------------------|----------------------------------|
E|-3--3--3-3-3-3-3--3-3--3--0-1-2-3-|-3--3--3-3-3-3-3--3-3--3--0-1-2-3-|


                                   (R)
G|----------------------------------|----------------------------------|
D|----------------------------------|----------------------------------|
A|----------------------------------|----------------------------------|
E|-3--3--3-3-3-3-3--3-3--3--0-1-2-3-|-3--3--3-3-3-3-3--3-3--3--0-1-2-3-|


                                   (S)
G|----------------------------------|----------------------------------|
D|----------------------------------|-2--2--2-2-2-2-2--1--1--1-1-1-1-1-|
A|-3--3--3-3-3-3-3--5--5--5-5-5-5-5-|----------------------------------|
E|----------------------------------|----------------------------------|


                                   (T)
G|----------------------------------|----------------------------------|
D|----------------------------------|-2--2--2-2-2-2-2--1--1--1-1-1-1-1-|
A|-3--3--3-3-3-3-3--5--5--5-5-5-5-5-|----------------------------------|
E|----------------------------------|----------------------------------|


                                   (U)
G|----------------------------------|----------------------------------|
D|----------------------------------|----------------------------------|
A|----------------------------------|----------------------------------|
E|-3--3--3-3-3-3-3--3-3--3--0-1-2-3-|-3--3--3-3-3-3-3--3-3--3--0-1-2-3-|


                                   (V)
G|----------------------------------|----------------------------------|
D|----------------------------------|----------------------------------|
A|----------------------------------|----------------------------------|
E|-3--3--3-3-3-3-3--3-3--3--0-1-2-3-|-3--3--3-3-3-3-3--3-3--3--0-1-2-3-|


                                   (W)
G|----------------------------------|----------------------------------|
D|----------------------------------|----------------------------------|
A|----------------------------------|----------------------------------|
E|-3--3--3-3-3-3-3--3-3--3--0-1-2-3-|-3--3--3-3-3-3-3--3-3--3--0-1-2-3-|


                                   (X)
G|----------------------------------|----------------------------------|
D|----------------------------------|----------------------------------|
A|----------------------------------|----------------------------------|
E|-3--3--3-3-3-3-3--3-3--3--0-1-2-3-|-3--3--3-3-3-3-3--3-3--3--0-1-2-3-|


albums
tabs

 

1