Search tabs:
Browse artists: 0-9 | A | B | C | D | E | F | G | H | I | J | K | L | M | N | O | P | Q | R | S | T | U | V | W | X | Y | Z
/ / / bass tab

The Stranglers - Tramp
Tabbed By: Reecy
Email: Bushhead81@Hotmail.com

Tuning: Standard (E A D G)



SONG: TRAMP
 ARTISIT: THE STRANGLERS
 ALBUM: LA FOLIE
 BASSIST : JEAN JACQUES BURNEL
 TAB BY CHRIS@LOOPY0.DEMON.CO.UK

 /= SLIDE UP
 GUITAR AND KEYBOARDS INTRO

 VERSE                             (A)
G|----------------------------------|----------------------------------|
D|----------------------------------|--6--6--6--6--5-------------------|
A|--------------------------------6-|-----------------8--6-------------|
E|--8--8--8--6--0--4--6--8--8--8----|-----------------------8--6-------|


                                   (B)
G|----------------------------------|----------------------------------|
D|----------------------------------|-8--8--6------6--6--5-------------|
A|----------------------------------|----------8------------6----------|
E|--0--4--4--8--6---0--4--4--8--6---|--------------------------0--4--6-|


                                   (C)
G|----------------------------------|----------------------------------|
D|----------------------------------|--6--6--6--6--5-------------------|
A|--------------------------------6-|-----------------8--6-------------|
E|--8--8--8--6--0--4--6--8--8--8----------------------------8--6-------|


                                   (D)
G|----------------------------------|----------------------------------|
D|----------------------------------|-8--8--6------6--6--5-------------|
A|----------------------------------|----------8------------6----6-6-6-|
E|--0--4--4--8--6---0--4--4--8--6---|----------------------------------|


 CHORUS                            (E)
G|----------------------------------|----------------------------------|
D|----------------------------------|----------------------------------|
A|-4-4-4-4-4-4-4-4------------------|--------------------6-8-6----6-8-6-|
E|-----------------4-4-4-4-4-4-4-4--|-6-6-6-6-6-6-6-6--8--------8------|


                                   (F)
G|----------------------------------|----------------------------------|
D|----------------------------------|----------------------------------|
A|-4-4-4-4-4-4-4-4------------------|----------------------------------|
E|-----------------4-4-4-4-4-4-4-4--|-8-8-8-8-8-8-8-8-8-8-6-6-4-4-3-3--|


                                   (G)
G|----------------------------------|----------------------------------|
D|----------------------------------|----------------------------------|
A|-4-4-4-4-4-4-4-4------------------|--------------------6-8-6----6-8-6-|
E|-----------------4-4-4-4-4-4-4-4--|-6-6-6-6-6-6-6-6--8--------8------|


                                   (H)
G|----------------------------------|----------------------------------|
D|----------------------------------|----------------------------------|
A|-4-4-4-4-4-4-4-4------------------|----------------------------------|
E|-----------------4-4-4-4-4-4-4-4--|-8-8-8-8-8-8-8-8-6-6-5-5-4-0-4-6--|


 REPEAT VERSE


                                   (I)
G|----------------------------------|----------------------------------|
D|----------------------------------|----------------------------------|
A|-4-4-4-4-4-4-4-4------------------|--------------------6-8-6----6-8-6-|
E|-----------------4-4-4-4-4-4-4-4--|-6-6-6-6-6-6-6-6--8--------8------|


                                   (J)
G|----------------------------------|----------------------------------|
D|----------------------------------|----------------------------------|
A|-4-4-4-4-4-4-4-4------------------|----------------------------------|
E|-----------------4-4-4-4-4-4-4-4--|-8-8-8-8-8-8-8-8-6-6-5-5-4-4-3-3--|


                                   (K)
G|----------------------------------|----------------------------------|
D|----------------------------------|----------------------------------|
A|-4-4-4-4-4-4-4-4------------------|--------------------6-8-6----6-8-6-|
E|-----------------4-4-4-4-4-4-4-4--|-6-6-6-6-6-6-6-6--8--------8------|


                                   (L)
G|----------------------------------|----------------------------------|
D|----------------------------------|----------------------------------|
A|-4-4-4-4-4-4-4-4------------------|----------------------------------|
E|-----------------4-4-4-4-4-4-4-4--|-8-8-8-8-8-8-8-8-6-6-5-5-4-4-3-3--|


                                   (M)
G|----------------------------------|----------------------------------|
D|----------------------------------|----------------------------------|
A|---4--3---------------------------|--3--4--6--4--3-----3--4--3-------|
E-----------6--4--2---5--6----------|-----------------6----------------|


                                   (N)
G|----------------------------------|----------------------------------|
D|----------------------------------|----------------------------------|
A|---4--3---------------------------|----------------------------------|
E|---------6--4--2--S/----11--------|---0--4--4--8--6---0--4--4--8--6--|


 REPEAT I,J,K,L

                                   (O)
G|----------------------------------|----------------------------------|
D|----------------------------------|----------------------------------|
A|-4-4-4-4-4-4-4-4------------------|--------------------6-8-6----6-8-6-|
E|-----------------4-4-4-4-4-4-4-4--|-6-6-6-6-6-6-6-6--8--------8------|


                                   (P)
G|----------------------------------|----------------------------------|
D|----------------------------------|----------------------------------|
A|-4-4-4-4-4-4-4-4------------------|----------------------------------|
E|-----------------4-4-4-4-4-4-4-4--|-8-8-8-8-8-8-8-8-8-8-8-8-8-8-8-8--|


                                   (Q)
G|---------|---------|---------|---------|---------|---------|---------|
D|---------|---------|---------|---------|---------|---------|---------|
A|--4------|---------|---------|---------|--4------|---------|---------|
E|---------|--4------|--6------|--8------|---------|--4------|--8------|


albums
tabs

 

1