Search tabs:
Browse artists: 0-9 | A | B | C | D | E | F | G | H | I | J | K | L | M | N | O | P | Q | R | S | T | U | V | W | X | Y | Z
/ / / bass tab

Intro:

g:--------------------------------|
d:--------------------------------|
a:--------------------------------|
e:5-5-5-5-5-5-5-5-5-5-5-5-5-5-5-5-|


Verse Part 1:

g:--------------------------------|--------------------------------|
d:--------------------------------|--------------------------------|
a:--------------------------------|--------------------------------|
e:5-5-5-5-5-5-5-5-5-5-5-5-5-5-5-5-|5-5-5-5-5-5-5-5-5-5-5-5-5-5-3-4-|


Verse Part 2

g:--------------------------------|----------------|
d:--------------------------------|----------------|
a:--------------------------------|5-5-5-5-5-5-5-5-|
e:5-5-5-5-5-5-5-5-5-5-5-5-5-5-5-5-|----------------|

Bit Leading To Chorus:


g:--------------------------------|--------------------------------|
d:--------------------------------|--------------------------------|
a:7-5-6-7-7-7-7-7-7-5-6-7-7-7-7-7-|7-5-6-7-5-6-7-5-6-7-5-6-7-5-6-7-|
e:--------------------------------|--------------------------------|


Kinda Chorus Bit:

g:--------------------------------|--------------------------------|
d:----7-7-5-5---------7-7-5-5-----|----7-7-5-5---------7-7-5-5-----|
a:------------7-7-------------7-7-|------------7-7-------------7-7-|
e:5-5-------------5-5-------------|5-5-------------5-5-------------|

g:----7-7-5-5---------7-7-5-5-----|----7-7-5-5---------7-7-5-5-----|
d:------------7-7-------------7-7-|------------7-7-------------7-7-|
a:5-5-------------5-5-------------|5-5-------------5-5-------------|
e:--------------------------------|--------------------------------|


Bit Leading Back To Verse:

g:--------------------------------|--------------------------------|
d:--------------------------------|--------------------------------|
a:7-5-6-7-7-7-7-7-7-5-6-7-7-7-7-7-|7-7-7-7-7-7-7-7-7-7-7-7-7-7-7-7-|
e:--------------------------------|--------------------------------|


Middle Riff:

g:--------------------------------|
d:----------------------5---4---5-|
a:--------------6-5---------------|
e:5-----5---3---------------------|


albums
tabs

 

1