Search tabs:
Browse artists: 0-9 | A | B | C | D | E | F | G | H | I | J | K | L | M | N | O | P | Q | R | S | T | U | V | W | X | Y | Z
/ / / bass tab

Riff With Bass 1:
"Just One Thing If You're Let Loose"

g:--------------------------------|--------------------------------|
d:--------------------------------|--------------------------------|
a:--------------------------------|--------------------------------|
e:----------------0-----0---------|----------------00----0---------|


g:--------------------------------|--------------------------------|
d:--------------------------------|--------------------------------|
a:--------------------------------|--------------------------------|
e:----------------00----00--------|----------------0~~~~~~~~~~~~~~~|


g:--------------------------------|--------------------------------|
d:--------------------------------|--------------------------------|
a:--------------------------------|--------------------------------|
e:----------------00----00--------|----------------0~~~~~~~~~~~~~~~|


Riff With Bass 2:
"And One More Thing If You Can Hear"

g:--------------------------------|--------------------------------|
d:--------------------------------|--------------------------------|
a:--------------------------------|--------------------------------|
e:0-----0-------------------------|0-----0-------------------------|


g:--------------------------------|--------------------------------|
d:--------------------------------|--------------------------------|
a:--------------------------------|--------------------------------|
e:00----0---------00----0---------|00----0---------00--------------|



Other Riff:

g:--------------------------------|--------------------------------|
d:5-4---3-2---2-1-----------------|1-0---0-------------------------|
a:------------------5-4---3---2---|--------------------------------|
d:--------------------------------|--------------------------------|


Last Riff:

g:--------------------------------|--------------------------------|
d:--------------------------------|--------------------------------|
a:--------------------------------|--------------------------------|
e:0-----0-------------------------|0-----0-------------------------|


g:--------------------------------|--------------------------------|
d:--------------------------------|--------------------------------|
a:--------------------------------|--------------------------------|
e:00----0---------00----0---------|00----0---------00----0---------|


g:--------------------------------|--------------------------------|
d:--------------------------------|--------------------------------|
a:--------------------------------|----------------54--------------|
e:00----0---------00----0---------|00----0---------------0---------|


g:--------------------------------|--------------------------------|
d:--------------------------------|--------------------------------|
a:--------------------------------|----------------54--------------|
e:00----0---------00----0---------|00----0---------------0---------|


g:--------------------------------|--------------------------------|
d:--------------------------------|--------------------------------|
a:--------------------------------|----------------54--------------|
e:00----0---------00----0---------|00----0---------------0---------|


albums
tabs

 

1