Search tabs:
Browse artists: 0-9 | A | B | C | D | E | F | G | H | I | J | K | L | M | N | O | P | Q | R | S | T | U | V | W | X | Y | Z
/ / / bass tab

The Stranglers - Burning Up Time
Tabbed By: Reecy
Email: Bushhead81@Hotmail.com

Tuning: Standard (E A D G)



SONG: BURNING UP TIME
 ARTIST: THE STRANGLERS
 ALBUM: NO MORE HEROES
 BASSIST: JEAN JACQUES BURNEL
 TAB BY CHRIS@LOOPY0.DEMON.CO.UK


                                   (A)
G|----------------------------------|----------------------------------|
D|----------------------------------|----------------------------------|
A|----------------------------------|----------------------------------|
E|--5---5---5---3---0---0---0---3---|--5---5---5---3---0---0---0---3---|
			

                                   (B)
G|----------------------------------|----------------------------------|
D|----------------------------------|----------------------------------|
A|----------------------------------|----------------------------------|
E|--5---5---5---3---0---0---0---3---|--5---5---5---3---0---0---0---3---|


                                   (C)
G|----------------------------------|----------------------------------|
D|----------------------------------|----------------------------------|
A|----------------------------------|----------------------------------|
E|--5---5---5---3---0---0---0---3---|--5---5---5---3---0---0---0---3---|


                                   (D)
G|----------------------------------|----------------------------------|
D|----------------------------------|----------------------------------|
A|----------------------------------|----------------------------------|
E|--5---5---5---3---0---0---0---3---|--5---5---5---3---0---0---0---3---|


                                   (E)
G|----------------------------------|----------------------------------|
D|----------------------------------|----------------------------------|
A|----------------------------------|----------------------------------|
E|--5---5---5---3---0---0---0---3---|--5---5---5---3---0---0---0---3---|


                                   (F)
G|----------------------------------|----------------------------------|
D|----------------------------------|----------------------------------|
A|----------------------------------|----------------------------------|
E|--5---5---5---3---0---0---0---3---|--5---5---5---3---0---0---0---3---|


                                   (G)
G|----------------------------------|----------------------------------|
D|----------------------------------|----------------------------------|
A|--7--7---5--5---4--4---2----------|--5--5---3--3---2--2---0----------|
E|----------------------------------|----------------------------------|


                                   (H)
G|----------------------------------|----------------------------------|
D|----------------------------------|----------------------------------|
A|--7--7---5--5---4--4---2----------|--5--5---3--3---2--2---0----------|
E|----------------------------------|----------------------------------|


                                   (I)
G|----------------------------------|----------------------------------|
D|----------------------------------|----------------------------------|
A|--7--7---5--5---4--4---2----------|--5--5---3--3---2--2---0----------|
E|----------------------------------|----------------------------------|


                                   (J)
G|----------------------------------|----------------------------------|
D|----------------------------------|----------------------------------|
A|--7--7---5--5---4--4---2----------|--5--5---3--3---2--2---0----------|
E|----------------------------------|----------------------------------|


                                   (K)
G|----------------------------------|----------------------------------|
D|----------------------------------|----------------------------------|
A|-2-2-2-2-2-2-2-2--5-5-5-5-5-5-5-5-|-2-2-2-2-2-2-2-0------------------|
E|----------------------------------|------------------3--3----5--5----|


                                   (L)
G|----------------------------------|----------------------------------|
D|----------------------------------|----------------------------------|
A|----------------------------------|----------------------------------|
E|--5---5---5---3---0---0---0---3---|--5---5---5---3---0---0---0---3---|


                                   (M)
G|----------------------------------|----------------------------------|
D|----------------------------------|----------------------------------|
A|----------------------------------|----------------------------------|
E|--5---5---5---3---0---0---0---3---|--5---5---5---3---0---0---0---3---|


                                   (N)
G|----------------------------------|----------------------------------|
D|----------------------------------|----------------------------------|
A|----------------------------------|----------------------------------|
E|--5---5---5---3---0---0---0---3---|--5---5---5---3---0---0---0---3---|


                                   (O)
G|----------------------------------|----------------------------------|
D|----------------------------------|----------------------------------|
A|----------------------------------|----------------------------------|
E|--5---5---5---3---0---0---0---3---|--5---5---5---3---0---0---0---3---|


                                   (P)
G|----------------------------------|----------------------------------|
D|----------------------------------|----------------------------------|
A|----------------------------------|----------------------------------|
E|--5---5---5---3---0---0---0---3---|--5---5---5---3---0---0---0---3---|

 REPEAT G, H, I, J, K

                                   (Q)
G|----------------------------------|----------------------------------|
D|----------------------------------|----------------------------------|
A|----------------------------------|----------------------------------|
E|--5---5---5---3---0---0---0---3---|--5---5---5---3---0---0---0---3---|


                                   (R)
G|----------------------------------|----------------------------------|
D|----------------------------------|----------------------------------|
A|----------------------------------|----------------------------------|
E|--5---5---5---3---0---0---0---3---|--5---5---5---3---0---0---0---3---|


                                   (S)
G|----------------------------------|----------------------------------|
D|----------------------------------|----------------------------------|
A|----------------------------------|----------------------------------|
E|--5---5---5---3---0---0---0---3---|--5---5---5---3---0---0---0---3---|


                                   (T)
G|----------------------------------|----------------------------------|
D|----------------------------------|----------------------------------|
A|----------------------------------|----------------------------------|
E|--5---5---5---3---0---0---0---3---|--5---5---5---3---0---0---0---3---|


                                   (U)
G|----------------------------------|----------------------------------|
D|----------------------------------|----------------------------------|
A|----------------------------------|------4--5---7--------4--5--6-----|
E|--5---5---5---3---0---0---0---3---|--5---------------5---------------|

 REPEAT G, H, I, J

                                   (V)
G|----------------------------------|----------------------------------|
D|----------------------------------|----------------------------------|
A|-2-2-2-2-2-2-2-2--2-2-2-2-2-2-2-2-|-5-5-5-5-5-5-5-5--5-5-5-5-5-5-5-5-|
E|----------------------------------|----------------------------------|


                                   (W)
G|----------------------------------|----------------------------------|
D|-2-2-2-2-2-2-2-2--2-2-2-2-2-2-2-2-|-3-3-3-3-3-3-3-3--3-3-3-3-3-3-3-3-|
A|----------------------------------|----------------------------------|
E|----------------------------------|----------------------------------|


                                   (X)
G|----------------------------------|----------------------------------|
D|-4-4-4-4-4-4-4-4--4-4-4-4-4-4-4-4-|-5-5-5-5-5-5-5-5--7-7-7-7-7-7-7-7-|
A|----------------------------------|----------------------------------|
E|----------------------------------|----------------------------------|


                                   (Y)
G|----------------------------------|----------------------------------|
D|----------------------------------|----------------------------------|
A|----------------------------------|----------------------------------|
E|--5---4---3---2---3---2---1---0---|--5---4---3---2---3---2---1---0---|

 REPEAT Y UNTIL THE SONG FADES OUT


albums
tabs

 

1