Search tabs:
Browse artists: 0-9 | A | B | C | D | E | F | G | H | I | J | K | L | M | N | O | P | Q | R | S | T | U | V | W | X | Y | Z
/ / / bass tab

Mxtabs [http://www.mxtabs.net]
Mxtabs
Band: The Stranglers
Song: No More Heroes
Album: Greatest Hits
Bassist: Jean-Jaques Burnell


Intro
G|-0-12\\\\11\\\\9\\\\7\\\\5\\\\4\\\\2-0-----------|-------|
D|-------------------------------------|--DRUM-|
A|-------------------------------------|--FILL-|
E|-------------------------------------|-------|

Pick as fast as you can sliding down from the 12th fret

Chorus
G|---------------------|
D|---------------------|
A|-----3333------------|
E|-3-3------33-x-1-111-|

Verse
G|---------------------|
D|---------------------|
A|-----3333------------|
E|-3-3------11-x-3-333-|

Bridge riff
G|---------------------|
D|-------------REST----|
A|----1--------REST----|
E|--3---3-1-3----------|

Solo

The keyboard/guitar solo uses these riffs:

G|--------------------|           |----------------------|
D|--------------------|           |----------------------|
A|---------11113333---|           |---------1111---------|
E|-33335555-----------|           |-33335555----5555-----|

Try lots of variations, it's all improvisation anyway. Play it how you think it sounds good!

Outro
G|-----------------------------------|
D|-----------------------------------|
A|---1-------1-------1-------1-------|
E|-3---3-1-3---3-1-3---3-1-3---3-1-3-|

finish

It's pretty simple, but definitely correct

Feel free to email any comments or corrections to me at ben_22_s@hotmail.com

 Ben


albums
tabs

 

1