Search tabs:
Browse artists: 0-9 | A | B | C | D | E | F | G | H | I | J | K | L | M | N | O | P | Q | R | S | T | U | V | W | X | Y | Z
/ / / bass tab

The Stranglers - Something Better Change
Tabbed By: Reecy
Email: Bushhead81@Hotmail.com

Tuning: Standard (E A D G)



Please note the pushes at the end of riff B & C

ARTIST: THE STRANGLERS
SONG: SOMETHING BETTER CHANGE
ALBUM: NO MORE HEROES
BASSIST: JEAN JACQUES BURNEL
TAB BY: user@johnrosk.softnet.co.uk

R = REST
S = SLIDE
* = CUT OFF NOTE AFTER PLAYING

BASS COME IN AFTER GUITAR INTRO
SLIDING FROM E 7 TO E 2





G|----------------------------------|---------------------------------|
D|----------------------------------|---------------------------------|
A|----------------------------------|---------------------------------|
E|----------------------------------|------------------------------7S-|


			(A)
G|----------------------------------|---------------------------------|
D|-------------------------------1--|---R---1------1---2---1----------|
A|----------------------------------|-------------------------2---1---|
E|---2---2---2---2---2---2---2------|---------------------------------|



REPEAT  A ANOTHER 5 TIMES
	

			(B)
G|----------------------------------|---------------------------------|
D|---2------2-----------------------|------------------------------2--|
A|--------------4---2-----2---------|---------------------------------|
E|----------------------------4-----|---2---2---2------2---2---2------|



			(C)
G|----------------------------------|---------------------------------|
D|------2---------------------------|------------------------------2--|
A|----------4---2------2------------|---------------------------------|
E|-------------------------4--------|---2---2---2------2---2---2------|



			(D)
G|----------------------------------|---------------------------------|
D|------2---------------------------|---------------------------------|
A|----------4---2---2---2-----------|---------------------------------|
E|--------------------------4-------|---2---2---2------2---2---2---2--|



			(E)
G|----------------------------------|---------------------------------|
D|----------------------------------|---------------------------------|
A|-------------------4---4---4------|---------------------------------|
E|---2---2---2---2---------------0--|-HOLD---------------------12S----|



REPEAT A 8 TIMES

REPEAT B, C, D, E

REPEAT A 10 TIMES


			(F)

G|----------------------------------|---------------------------------|
D|----------------------------------|---------------------------------|
A|----------------------------------|---------------------------------|
E|---2---2---2---2---2---2---2---R--|--7---7---7---7---7---7---7---S--|


REPEAT F

			(G)
G|----------------------------------|---------------------------------|
D|----------------------------------|---------------------------------|
A|----------------------------------|---------------------------------|
E|---2---2---2---2---2---2---2---2--|--7---7---7---7---7---7---7---7S-|



REPEAT G ANOTHER 3 TIMES


			(H)
G|----------------------------------|-----------------------------------|
D|----------------------------------|-----------------------------------|
A|----------------------------------|-----------------------------------|
E|---2---2---2---2---2---2---2---2--|7---7---7---7S--12-12-12---12---12S|


REPEAT H ANOTHER 2 TIMES


			(I)
G|----------------------------------|-----------------------------------|
D|----------------------------------|-----------------------------------|
A|----------------------------------|-----------------------------------|
E|---2---2---2---2---2---2---2---2--|7---7---7---7---7---7---S12---12S--|


REPEAT  G



			(J)
G|----------------------------------|---------------------------------|
D|----------------------------------|---------------------------------|
A|----------------------------------|---2---2---2---2---2---2---2---2-|
E|---2---2---2---2---2---2---2---2--|---------------------------------|


REPEAT  J ANOTHER 7 TIMES

			(K)
G|----------------------------------|---------------------------------|
D|----------------------------------|---------------------------------|
A|----------------------------------|---------------------------------|
E|---2---2---2---0-HOLD-------------|---3---3---3---2-HOLD------------|


REPEAT ANOTHER 2 TIMES
			
			(L)
G|----------------------------------|---------------------------------|
D|----------------------------------|---------------------------------|
A|----------------------------------|---------------------------------|
E|---2---2---2---0-HOLD-------------|---3---R-------2-HOLD------------|


G|----------------------------------|---------------------------------|
D|----------------------------------|---------------------------------|
A|----------------------------------|---------------------------------|
E|----------------------------------|---------------------------------|




			(M)
G|----------------------------------|---------------------------------|
D|----------------------------------|---------------------------------|
A|----------------------------------|---------------------------------|
E|--2*------------------------------|---------------------------------|


albums
tabs

 

1