Search tabs:
Browse artists: 0-9 | A | B | C | D | E | F | G | H | I | J | K | L | M | N | O | P | Q | R | S | T | U | V | W | X | Y | Z
/ / / bass tab

The Stranglers - Down in The Sewer
Tabbed By: Reecy
Email: Bushhead81@Hotmail.com

Tuning: Standard (E A D G)



ARTIST: THE STRANGLERS
SONG: DOWN IN THE SEWER
ALBUM: RATTUS NORVEGICUS
BASSIST: JEAN JACQUES BURNEL
TAB BY: user@johnrosk.softnet.co.uk	

R = REST
S = SLIDE

INTRO

			(A)
G|-------4---4---4------------------|------4---4---4------------------|
D|---4---------------4---2---2---2--|--4---------------4---2---2---2--|
A|----------------------------------|---------------------------------|
E|----------------------------------|---------------------------------|

			
			(B)
G|----------------------------------|---------------------------------|
D|----------------------------------|--2---2---2---2---2---2---2---2--|
A|---0---0---0---0---0---0---0---0--|---------------------------------|
E|----------------------------------|---------------------------------|

			(C)
G|----------------------------------|---------------------------------|
D|---0---0---0---0---0---0---0---0--|---------------------------------|
A|----------------------------------|--0---0---0---0---0---0---0---2--|
E|----------------------------------|---------------------------------|

			(D)
G|----------------------------------|---------------------------------|
D|---0------------------------------|--0---------------3---2---0------|
A|-------2---R---2---0---2---R---2--|------2---R---2---------------2--|
E|----------------------------------|---------------------------------|

REPEAT D TWICE				
			(E)					
G|----------------------------------|---------------------------------|
D|---0------------------------------|--0------------------------------|
A|-------2---R---2---0---2---R---2--|------2---R---2-----------0---2--|
E|----------------------------------|------------------0---2----------|

			(F)	
G|----------------------------------|---------------------------------|
D|---0------------------------------|--0------------------------------|
A|-------2---R---2-----------0---2--|------2---R---2-----------0---2--|
E|-------------------0---2----------|------------------0---2----------|
						
			(G)
G|----------------------------------|---------------------------------|
D|---0------------------------------|--0---------------3---2---0---3--|
A|-------2---R---2-----------0---2--|------2---R---2------------------|
E|-------------------0---2----------|---------------------------------|

			(H)
G|----------------------------------|---------------------------------|
D|---2---0---3---2---0---3---2---0--|--3---2---0---3---2---0---3---2--|
A|----------------------------------|---------------------------------|
E|----------------------------------|---------------------------------|

			(I)
G|-------------------2---2---2---2--|--2---2---2---0------------------|
D|---0---3---2---0------------------|---------------------------------|
A|----------------------------------|------------------4-----------2--|
E|----------------------------------|---------------------------------|

			(J)
G|----------------------------------|---------------------------------|
D|-----------4---3---2-----------0--|--2---4---2----------------------|
A|---2---2--------------------------|--------------2---4-----------2--|
E|----------------------------------|---------------------------------|

			(K)
G|-----------4---3---2-----------0--|--2---4---2----------------------|
D|----------------------------------|--------------0------------------|
A|---2---2--------------------------|------------------4-----------2--|
E|----------------------------------|---------------------------------|

REPEAT J
			(L)
G|-----------4---3---2-----------0--|--2---4---2-------0---0---0---0--|
D|----------------------------------|---------------0-----------------|
A|---2---2--------------------------|---------------------------------|
E|----------------------------------|---------------------------------|

			(M)
G|---0---0---0---0------------------|---------------------------------|
D|-------------------4---4---4---4--|--4---4---4---4---2---2---2---2--|
A|----------------------------------|---------------------------------|
E|----------------------------------|---------------------------------|

			(N)
G|----------------------------------|---------------------------------|
D|---2---2---2---2------------------|---------------------------------|
A|-------------------4-----------2--|--2---0---2---0---5---5---5---5--|
E|----------------------------------|---------------------------------|

			(O)
G|----------------------------------|---------------------------------|
D|----------------------------------|---------------------------------|
A|---5---5---5---5---4---4---4---4--|--4---4---4---4---3---3---3---3--|
E|----------------------------------|---------------------------------|

			(P)
G|----------------------------------|---------------------------------|
D|----------------------------------|---------------------------------|
A|---3---3---3---3------------------|------------------4-----------2--|
E|-------------------2---2---2---2--|--2---2---2---2------------------|


REPEAT J, K, J, L, M, N, O,

			(Q)
G|----------------------------------|---------------------------------|
D|----------------------------------|---------------------------------|
A|---3---3---3---3------------------|---------------------------------|
E|-------------------2---2---2---2--|--2---2---2---2---0---0---3---4--|

			(R)
G|----------------------------------|---------------------------------|
D|----------------------------------|------------------0---0---3---4--|
A|---2---2---4---2------------------|--2---2---4---2------------------|
E|-------------------0---0---3---4--|---------------------------------|


			(S)
G|---2---2---4---2------------------|--2---2---4---2---0---0---0---0--|
D|-------------------0---0---3---4--|---------------------------------|
A|----------------------------------|---------------------------------|
E|----------------------------------|---------------------------------|


			(T)
G|---0---0---0---0------------------|---------------------------------|
D|-------------------4-R------------|--0---------------0--------------|
A|---------------------------0---2--|------2---0---2-------2---R---2--|
E|-----------------------3----------|---------------------------------|

(*) SONG BEGINS AT THE END OF T				  (*)	


			(U)
G|----------------------------------|---------------------------------|
D|-------------------0--------------|--3---2---0-------0--------------|
A|---0---2---R---2-------2---R---2--|--------------2-------2---R---2--|
E|----------------------------------|---------------------------------|


REPEAT U 14 TIMES

			(V)
G|----------------------------------|---------------------------------|
D|-------------------0--------------|------------------0--------------|
A|---0---2---R---2-------2---R---2--|----------0---2-------2---R---2--|
E|----------------------------------|--0---2--------------------------|


			(W)
G|----------------------------------|---------------------------------|
D|-------------------0--------------|------------------0--------------|
A|-----------0---2-------2---R---2--|----------------------2---R---2--|
E|---0---2--------------------------|--0---2---0---2------------------|


			(X)
G|----------------------------------|---------------------------------|
D|-------------------0--------------|------------------0--------------|
A|-----------0---2-------2---R---2--|--0---2---R---2-------2---R---2--|
E|---0---2--------------------------|---------------------------------|


			(Y)
G|----------------------------------|---------------------------------|
D|---3---2---0-------0--------------|-------------------0-------------|
A|---------------2-------2---R---2--|---0---2---R---2-------2---R---2-|
E|----------------------------------|---------------------------------|

REPEAT Y 28 TIMES


			(Z)
G|----------------------------------|---------------------------------|
D|---3---2---0---3---2---0---3---2--|--0---3---2---0---3---2---0---3--|
A|----------------------------------|---------------------------------|
E|----------------------------------|---------------------------------|


			(AA)
G|----------------------------------|--2---2---2---2---2---2---2---0--|
D|---2---0---3---2---0---3---2---0--|---------------------------------|
A|----------------------------------|---------------------------------|
E|----------------------------------|---------------------------------|


			(AB)
G|----------------------------------|---------------------------------|
D|---------------------------4---3--|--2-----------0---2---4---2------|
A|---4-----------2---2---2----------|------------------------------2--|
E|----------------------------------|---------------------------------|

			(AC)
G|---------------------------4---3--|--2-----------0---2---4---2------|
D|----------------------------------|------------------------------0--|
A|---4-----------2---2---2----------|---------------------------------|
E|----------------------------------|---------------------------------|

REPEAT AB

REPEAT AC

			(AD)
G|---0---0---0---0---0---0---0---0--|---------------------------------|
D|----------------------------------|--4---4---4---4---4---4---4---4--|
A|----------------------------------|---------------------------------|
E|----------------------------------|---------------------------------|


			(AE)
G|----------------------------------|---------------------------------|
D|---2---2---2---2---2---2---2---2--|---------------------------------|
A|----------------------------------|--4-----------2---2---0---2---0--|
E|----------------------------------|---------------------------------|


			(AF)
G|----------------------------------|---------------------------------|
D|----------------------------------|---------------------------------|
A|---5---5---5---5---5---5---5---5--|--4---4---4---4---4---4---4---4--|
E|----------------------------------|---------------------------------|


			(AG)
G|----------------------------------|---------------------------------|
D|----------------------------------|---------------------------------|
A|---3---3---3---3---3---3---3---3--|---------------------------------|
E|----------------------------------|--2---2---2---2---2---2---2---2--|


			(AH)
G|----------------------------------|---------------------------------|
D|----------------------------------|---------------------------------|
A|-------------------2---2---4---2--|------------------2---2---4---2--|
E|---0---0---3---4------------------|--0---0---3---4------------------|


			(AI)
G|-------------------2---2---4---2--|------------------2---2---4---2--|
D|---0---0---3---4------------------|--0---0---3---4------------------|
A|----------------------------------|---------------------------------|
E|----------------------------------|---------------------------------|


			(AJ)
G|---0---0---0---0---0---0---0---0--|---------------------------------|
D|----------------------------------|---------------------------------|
A|----------------------------------|--2-----------------------0------|
E|----------------------------------|---------------------------------|


			(AK)
G|----------------------------------|---------------------------------|
D|----------------------------------|---------------------------------|
A|----------------------------------|---------------------------------|
E|---7-7-7-5-7-S-2---7-7-7-5-7-S-2--|--7-7-7-5-7-S-2---7---7---5-5-5--|

			(AL)
G|----------------------------------|---------------------------------|
D|----------------------------------|---------------------------------|
A|----------------------------------|---------------------------------|
E|--7-7-7-7-7S--2S---7---7---7S--2S-|--7---7---7S--2-R--7---7---5-5-5-|

			(AM)
G|----------------------------------|---------------------------------|
D|----------------------------------|---------------------------------|
A|----------------------------------|---------------------------------|
E|---7-7-7-7-7---R---7---7---7---7--|--5-5-5-5-5---R---5---5---5---S--|


			(AN)
G|----------------------------------|---------------------------------|
D|----------------------------------|---------------------------------|
A|----------------------------------|---------------------------------|
E|10-10-10-10-10-R-10--10-10-S12-S10|--2-2-2-2-2---R---2---2---2---5--|


REPEAT AM, AN

			(AO)
G|----------------------------------|---------------------------------|
D|----------------------------------|---------------------------------|
A|----------------------------------|---------------------------------|
E|--3---3---3---3-R-5---5---5---5-R-|--2---2---2---2---2---2---2---2--|


REPEAT AO

			(AP)
G|----------------------------------|---------------------------------|
D|----------------------------------|---------------------------------|
A|----------------------------------|---------------------------------|
E|---3-3-3-3-3---R---5-5-5-5-5---R--|--7-7-7-7-7---R---7---7---7---7--|

			(AQ)
G|----------------------------------|---------------------------------|
D|----------------------------------|---------------------------------|
A|----------------------------------|---------------------------------|
E|---5-5-5-5-5---R---5---5---5---7--|10-10-10-10-10-R-10-10-10-S12-S10|


			(AR)
G|----------------------------------|---------------------------------|
D|----------------------------------|---------------------------------|
A|----------------------------------|---------------------------------|
E|---2-2-2-2-2---R---2---2---2---5--|--7-7-7-7-7---R---7---7---7---7--|

REPEAT AQ
			(AS)
G|----------------------------------|---------------------------------|
D|----------------------------------|---------------------------------|
A|----------------------------------|---------------------------------|
E|---2-2-2-2-2---R---2---2---2---0--|--3---3---3---3-R-5---5---5---5--|


REPREAT AS
				
			(AT)
G|----------------------------------|---------------------------------|
D|---2---2---2---2---2---2---2---2--|--0---0---0---0---0---0---0---0--|
A|----------------------------------|---------------------------------|
E|----------------------------------|---------------------------------|


			(AU)
G|----------------------------------|---------------------------------|
D|----------------------------------|---------------------------------|
A|---4---4---4---4---4---4---4---4--|--2---2---2---2---4---4---0---0--|
E|----------------------------------|---------------------------------|


			(AV)
G|----------------4------2---0------|-----------------------------9-11|
D|---2---2---2-R-----------------2--|--0---0---2---4---7---9---12-----|
A|----------------------------------|---------------------------------|
E|----------------------------------|---------------------------------|

			(AW)
G|----------------------------------|---------------------------------|
D|-----------2---0------------------|-------------------------0-------|
A|---4---4-----------4---4---4------|--2---2---2---2---4--------------|
E|----------------------------------|---------------------------------|

REPEAT (AV)

			(AX)
G|----------------------------------|---------------------------------|
D|-----------2---4---2---0----------|-------------------------0-------|
A|---4---4-------------------4------|--2---2---2---2---4--------------|
E|----------------------------------|---------------------------------|


REPEAT AV


			(AY)
G|----------------------------------|---------------------------------|
D|-----------2---4---2---0----------|---------------------------------|
A|---4---4-------------------4------|--2---2---2---2---2---2---2---2--|
E|----------------------------------|---------------------------------|

				

			(AZ)
G|----------------------------------|---------------------------------|
D|----------------------------------|---------------------------------|
A|---0---0---0---0---0---0---0---0--|---------------------------------|
E|----------------------------------|--0---0---0---0---0---0---0---0--|


			(BA)
G|----------------------------------|---------------------------------|
D|----------------------------------|---------------------------------|
A|----------------------------------|--2---2---2---2---2---2---2---2--|
E|---2---2---2---2---2---2---2---2--|---------------------------------|

REPEAT AZ

			(BB)
G|----------------------------------|---------------------------------|
D|----------------------------------|---------------------------------|
A|----------------------------------|--2----2--2----2--2----2--2----2-|
E|---2---2---2---2---2---2---2---2--|---------------------------------|

				TEMPO INCREASES TILL END
			(BC)
G|----------------------------------|---------------------------------|
D|----------------------------------|---------------------------------|
A|--0----0--0----0--0----0--0----0--|---------------------------------|
E|----------------------------------|--0----0--0----0--0----0--0----0-|


			(BD)
G|----------------------------------|---------------------------------|
D|----------------------------------|---------------------------------|
A|----------------------------------|--2----2--2----2--2----2--2----2-|
E|--2----2--2----2--2----2--2----2--|---------------------------------|


REPEAT BC

REPEAT BD

REPEAT BC

REPEAT BD

REPEAT BC

			(BE)
G|----------------------------------|---------------------------------|
D|----------------------------------|---------------------------------|
A|----------------------------------|--2--HOLD------------------------|
E|--2----2--2----2--2----2--2----2--|---------------------------------|


albums
tabs

 

1