Search tabs:
Browse artists: 0-9 | A | B | C | D | E | F | G | H | I | J | K | L | M | N | O | P | Q | R | S | T | U | V | W | X | Y | Z
/ / / bass tab

The Stranglers - London Lady
Tabbed By: Reecy
Email: Bushhead81@Hotmail.com

Tuning: Standard (E A D G)



ARTIST: THE STRANGLERS
SONG: LONDON LADY
ALBUM: RATTUS NORVEGICUS
BASSIST: JEAN JACQUES BURNEL
TAB BY: user@johnrosk.softnet.co.uk	

R = REST

S = SLIDE


G|----------------------------------|---------------------------------|
D|----------------------------------|---------------------------------|
A|----------------------------------|---------------------------------|
E|----------------------------------|----------------------------15S--|
			
			(A)
G|----------5------3---2------------|----------7------5---4-------4---|
D|-------------------------5----7---|-------------------------7-------|
A|---3------------------------------|---5-----------------------------|
E|----------------------------------|---------------------------------|
				

			(B)
G|----------------------------------|--2-------------------0---5---7--|
D|----------5------3---0---3---5----|------5---3---0---3--------------|
A|----------------------------------|---------------------------------|
E|---3------------------------------|---------------------------------|

REPEAT A & B

			(C)
G|----------------------------------|---------------------------------|
D|----------------------------------|---------------------------------|
A|---3------3------3---3---3---3----|--5------5------5---5---5---5----|
E|----------------------------------|---------------------------------|				
	


			(D)		
G|----------------------------------|---------------------------------|
D|----------------------------------|---------------------------------|
A|----------------------------------|---------------------------------|
E|---3------3------3---3---3---3----|--1------1-------1---1---1---1---|


REPEAT C TO D 3 TIMES

							
			(E)
G|----------------------------------|---------------------------------|
D|----------------------------------|---------------------------------|
A|----------------------------------|---------------------------------|
E|---3---3---3---3---3---3---3---3--|--R------------------------------|

REPEAT E

			(F)
G|----------------------------------|---------------------------------|
D|----------------------------------|--5---4---2---0------------------|
A|----------------------------------|------------------3---2---0------|
E|---3---3---3---3---3---3---3---3--|------------------------------3--|

REPEAT E

REPEAT  C TO D TWICE


			(G)
G|----------------------------------|---------------------------------|
D|---5---5---5---5---5---5---5----S-|--3---3---3---3---3---3---3----S-|
A|----------------------------------|---------------------------------|
E|----------------------------------|---------------------------------|


			(H)
G|----------------------------------|---------------------------------|
D|---2---2---2---2---2---2---2----S-|--1---1---1---1---1---1---1----S-|
A|----------------------------------|---------------------------------|
E|----------------------------------|---------------------------------|


REPEAT G & H, HOLD THE LAST NOTE ON H

			(I)
G|----------------------------------|---------------------------------|
D|----------------------------------|---------------------------------|
A|----------------------------------|------1--------------------------|
E|---3---3--3---3---3---3---3---3---|--R----------0---1-------1---1---|


REPEAT I 3 TIMES

			(J)
G|----------------------------------|---------------------------------|
D|---5---5---5---5---3---3---3--3---|--2---2---2---2---3---3---3---3--|
A|----------------------------------|---------------------------------|
E|----------------------------------|---------------------------------|

REPEAT J

REPEAT  C TO D TWICE

REPEAT I 3 TIMES


			(K)
G|----------------------------------|---------------------------------|
D|----------------------------------|---------------------------------|
A|----------------------------------|------1--------------------------|
E|---3---3---3---3---3---3---3---3--|--R----------0---1-HOLD----------|

REPEAT I 6 TIMES

REPEAT K & HOLD THE LAST NOTE


albums
tabs

 

1