Search tabs:
Browse artists: 0-9 | A | B | C | D | E | F | G | H | I | J | K | L | M | N | O | P | Q | R | S | T | U | V | W | X | Y | Z
/ / / bass tab

Tabbed by Neo Steveo (www.i-hate-jesus.tk)

G|-------------------------------
D|-------------------------------
A|----7-----5--------------------
E|-------7---------7-7-7-5-2-----

G|-------------------------------
D|-------------------------------
A|--7-7-7-7-5-5------------------
E|---------------7-7-7-7-5-2-----

You can get away with just playing these two riffs
all the way through.  If you know any other changes
please email them to me (anarchysteveo@hotmail.com)


albums
tabs

 

1