Search tabs:
Browse artists: 0-9 | A | B | C | D | E | F | G | H | I | J | K | L | M | N | O | P | Q | R | S | T | U | V | W | X | Y | Z
/ / / bass tab

The Stranglers - Ugly
Tabbed By: Reecy
Email: Bushhead81@Hotmail.com

Tuning: Standard (E A D G)



 SONG: UGLY
 ARTIST: THE STRANGLERS
 ALBUM: RATTUS NORVEGICUS
 BASSIST: JEAN JACQUES BURNEL
 TAB BY CHRIS@LOOPY0.DEMON.CO.UK


                                   (A)
G|----------------------------------|----------------------------------|
D|----------------------------------|----------------------------------|
A|----------------------------------|----------------------------------|
E|----------------------------------|---------------------------3-S/-7-|


                                   (B)
G|----------------------------------|----------------------------------|
D|---------------------7----7-------|---------------------7---7--------|
A|---------7---5---7-----7----------|---------7---5---7-----7----------|
E|-7---5----------------------3S/-7-|-7---5----------------------3S/-7-|


                                   (C)
G|----------------------------------|----------------------------------|
D|---------------------7----7-------|---------------------7---7--------|
A|---------7---5---7-----7----------|---------7---5---7-----7----------|
E|-7---5----------------------3S/-7-|-7---5------------------------3S/-|


                                   (D)
G|----------------------------------|----------------------------------|
D|----------------------------------|----------------------------------|
A|----------------------------------|----------------------------------|
E|-7-7-7-7-5-5-5-5-0-0-0-5--0--5--3-|-7-7-7-7-5-5-5-5-0-0-0-5--0--5--3-|


                                   (E)
G|----------------------------------|----------------------------------|
D|----------------------------------|----------------------------------|
A|----------------------------------|----------------------------------|
E|-7-7-7-7-5-5-5-5-0-0-0-5--0--5--3-|-7-7-7-7-5-5-5-5-0-0-0-5--0--5--3-|


                                   (F)
G|----------------------------------|----------------------------------|
D|----------------------------------|----------------------------------|
A|----------------------------------|----------------------------------|
E|-7-7-7-7-5-5-5-5-0-0-0-5--0--5--3-|-7-7-7-7-5-5-5-5-0-0-0-5--0--5--3-|


                                   (G)
G|----------------------------------|----------------------------------|
D|----------------------------------|----------------------------------|
A|----------------------------------|----------------------------------|
E|-7-7-7-7-5-5-5-5-0-0-0-5--0--5--3-|-7-7-7-7-5-5-5-5-0-0-0-5--0--5--3-|


                                   (H)
G|----------------------------------|----------------------------------|
D|----------------------------------|----------------------------------|
A|----------------------------------|----------------------------------|
E|-7-7-7-7-5-5-5-5-0-0-0-5--0--5--3-|-7-7-7-7-5-5-5-5-0-0-0-5--0--5--3-|


                                   (I)
G|----------------------------------|----------------------------------|
D|----------------------------------|----------------------------------|
A|----------------------------------|----------------------------------|
E|-7-7-7-7-5-5-5-5-0-0-0-5--0--5--3-|-7-7-7-7-5-5-5-5-0-0-0-5--0--5--3-|


                                   (J)
G|----------------------------------|----------------------------------|
D|----------------------------------|----------------------------------|
A|----------------------------------|----------------------------------|
E|-7-7-7-7-5-5-5-5-0-0-0-5--0--5--3-|-7-7-7-7-5-5-5-5-0-0-0-5--0--5--3-|


                                   (K)
G|----------------------------------|----------------------------------|
D|----------------------------------|----------------------------------|
A|----------------------------------|--------------------------------5-|
E|-7-7-7-7-5-5-5-5-0-0-0-5--0--5--3-|-7-7-7-7-5-5-5-5-0-0-0-5--0--5----|


                                   (L)
G|----------------------------------|----------------------------------|
D|----------------------------------|----------------------------------|
A|-7---7---7---7---5---5---5---5----|-7---7---7---7---5---5---5---5----|
E|----------------------------------|----------------------------------|


                                   (M)
G|----------------------------------|----------------------------------|
D|----------------------------------|----------------------------------|
A|-7---7---7---7---5---5---5---5----|-7---7---7---7---5---5---5---5----|
E|----------------------------------|----------------------------------|
			

                                   (N)
G|----------------------------------|----------------------------------|
D|----------------------------------|----------------------------------|
A|-7---7---7---7---5---5---5---5----|-7---7---7---7---5---5---5---5----|
E|----------------------------------|----------------------------------|


                                   (O)
G|----------------------------------|----------------------------------|
D|----------------------------------|----------------------------------|
A|-7---7---7---7---5---5---5---5----|-7---7---7---7---5---5---5---5----|
E|----------------------------------|----------------------------------|


                                   (P)
G|----------------------------------|----------------------------------|
D|----------------------------------|----------------------------------|
A|-7---7---7---7---5---5---5---5----|-7---7---7---7---5---5---5---5----|
E|----------------------------------|----------------------------------|


                                   (Q)
G|-----------------7----------------|----------------------11---12--14-|
D|-----5---7---9-------9---7---5----|-----5---7---9---12---------------|
A|-7--------------------------------|-7--------------------------------|
E|----------------------------------|----------------------------------|


                                   (R)
G|----------------------------------|----------------------------------|
D|----------------------------------|---------7-----------4---5---7----|
A|-7---5-------5---7---5---7---5----|-7---5-------5---7----------------|
E|---------7------------------------|----------------------------------|

 REPEAT Q AND R ANOTHER 3 TIMES

                                   (S)
G|----------------------------------|----------------------------------|
D|----------------------------------|----------------------------------|
A|-7---7---7---7---5---5---5---5----|-7---7---7---7---5---5---5---5----|
E|----------------------------------|----------------------------------|


                                   (T)
G|----------------------------------|----------------------------------|
D|----------------------------------|----------------------------------|
A|-7---7---7---7---5---5---5---5----|-7---7---7---7---5---5---5---5----|
E|----------------------------------|----------------------------------|


                                   (U)
G|----------------------------------|----------------------------------|
D|----------------------------------|----------------------------------|
A|-7---7---7---7---5---5---5---5----|-7---7---7---7---5---5---5---5----|
E|----------------------------------|----------------------------------|


                                   (V)
G|----------------------------------|----------------------------------|
D|----------------------------------|----------------------------------|
A|-7---7---7---7---5---5---5---5----|-7---7---7---7---5---5---5---5----|
E|----------------------------------|----------------------------------|


                                   (W)
G|----------------------------------|----------------------------------|
D|----------------------------------|----------------------------------|
A|-7---7---7---7---5---5---5---5----|-7---7---7---7---5---5---5---5----|
E|----------------------------------|----------------------------------|


                                   (X)
G|----------------------------------|----------------------------------|
D|----------------------------------|----------------------------------|
A|-7---7---7---7---5---5---5---5----|-7---7---7---7---5---5---5---5----|
E|----------------------------------|----------------------------------|


                                   (Y)
G|----------------------------------|----------------------------------|
D|----------------------------------|----------------------------------|
A|-7---7---7---7---5---5---5---5----|-7---7---7---7---5---5---5---5----|
E|----------------------------------|----------------------------------|


                                   (Z)
G|----------------------------------|----------------------------------|
D|----------------------------------|----------------------------------|
A|-7---7---7---7---5---5---5---5----|-7---7---7---7---5---5---5---5----|
E|----------------------------------|----------------------------------|


                                   (AA)
G|----------------------------------|----------------------------------|
D|----------------------------------|----------------------------------|
A|-7---7---7---7---5---5---5---5----|-7---7---7---7---5---5---5---5----|
E|----------------------------------|----------------------------------|


                                   (AB)
G|----------------------------------|----------------------------------|
D|----------------------------------|----------------------------------|
A|-7---7---7---7---5---5---5---5----|-7---7---7---7---5---5---5---5--7-|
E|----------------------------------|----------------------------------|


                                   (AC)
G|----------------------------------|----------------------------------|
D|----------------------------------|----------------------------------|
A|----------------------------------|----------------------------------|
E|-7-7-7-7-5-5-5-5-0-0-0-5--0--5--3-|-7-7-7-7-5-5-5-5-0-0-0-5--0--5--3-|


                                   (AD)
G|----------------------------------|----------------------------------|
D|----------------------------------|----------------------------------|
A|----------------------------------|----------------------------------|
E|-7-7-7-7-5-5-5-5-0-0-0-5--0--5--3-|-7-7-7-7-5-5-5-5-0-0-0-5--0--5--3-|


                                   (AE)
G|----------------------------------|----------------------------------|
D|----------------------------------|----------------------------------|
A|----------------------------------|----------------------------------|
E|-7-7-7-7-5-5-5-5-0-0-0-5--0--5--3-|-7-7-7-7-5-5-5-5-0-0-0-5--0--5--3-|

                                   (AF)
G|----------------------------------|----------------------------------|
D|----------------------------------|----------------------------------|
A|----------------------------------|----------------------------------|
E|-7-7-7-7-5-5-5-5-0-0-0-5--0--5--3-|-7-7-7-7-5-5-5-5-0-0-0-5--0--5--3-|


                                   (AG)
G|----------------------------------|----------------------------------|
D|----------------------------------|----------------------------------|
A|----------------------------------|----------------------------------|
E|-7-7-7-7-5-5-5-5-0-0-0-5--0--5--3-|-7-7-7-7-5-5-5-5-0-0-0-5--0--5--3-|


                                   (AH)
G|----------------------------------|----------------------------------|
D|----------------------------------|----------------------------------|
A|----------------------------------|----------------------------------|
E|-7-7-7-7-5-5-5-5-0-0-0-5--0--5--3-|-7-7-7-7-5-5-5-5-0-0-0-5--0--5--3-|


                                   (AI)
G|----------------------------------|----------------------------------|
D|----------------------------------|----------------------------------|
A|----------------------------------|----------------------------------|
E|-7-7-7-7-5-5-5-5-0-0-0-5--0--5--3-|-7-7-7-7-5-5-5-5-0-0-0-5--0--5--3-|


                                   (AJ)
G|----------------------------------|----------------------------------|
D|----------------------------------|----------------------------------|
A|----------------------------------|----------------------------------|
E|-7-7-7-7-5-5-5-5-0-0-0-5--0--5--3-|-7-7-7-7-5-5-5-5-0-0-0-5--0--5--3-|


                                   (AK)
G|----------------------------------|----------------------------------|
D|----------------------------------|----------------------------------|
A|----------------------------------|----------------------------------|
E|-7-7-7-7-5-5-5-5-0-0-0-5--0--5--3-|-7-7-7-7-5-5-5-5-0-0-0-5--0--5--3-|
			

                                   (AL)
G|----------------------------------|----------------------------------|
D|----------------------------------|----------------------------------|
A|----------------------------------|----------------------------------|
E|-7-7-7-7-5-5-5-5-0-0-0-5--0--5--3-|-7-7-7-7-5-5-5-5-0-0-0-5--0--5--3-|


                                   (AM)
G|----------------------------------|----------------------------------|
D|----------------------------------|----------------------------------|
A|----------------------------------|----------------------------------|
E|-7-7-7-7-5-5-5-5-0-0-0-5--0--5--3-|-7-7-7-7-5-5-5-5-0-0-0-5--0--5--3-|


                                   (AN)
G|----------------------------------|----------------------------------|
D|----------------------------------|----------------------------------|
A|----------------------------------|----------------------------------|
E|-7-7-7-7-5-5-5-5-0-0-0-5--0--5--3-|-7-7-7-7-5-5-5-5-0-0-0-5--0--5--3-|


                                   (AO)
G|----------------------------------|----------------------------------|
D|----------------------------------|----------------------------------|
A|----------------------------------|----------------------------------|
E|-7-7-7-7-5-5-5-5-0-0-0-5--0--5--3-|-7-7-7-7-5-5-5-5-0-0-0-5--0--5--3-|


                                   (AP)
G|----------------------------------|----------------------------------|
D|----------------------------------|----------------------------------|
A|----------------------------------|----------------------------------|
E|-7-7-7-7-5-5-5-5-0-0-0-5--0--5--3-|-7-7-7-7-5-5-5-5-0-0-0-5--0--5--3-|


                                   (AQ)
G|----------------------------------|----------------------------------|
D|----------------------------------|----------------------------------|
A|----------------------------------|----------------------------------|
E|-7-7-7-7-5-5-5-5-0-0-0-5--0--5--0-|--3---3---3---3---3---3---3---3---|


                                   (AR)
G|----------------------------------|----------------------------------|
D|----------------------------------|----------------------------------|
A|----------------------------------|----------------------------------|
E|--3---3---3---3---3---3---3---3---|--5---3---5---3---5---3---5---3---|


                                   (AS)
G|----------------------------------|----------------------------------|
D|----------------------------------|----------------------------------|
A|----------------------------------|----------------------------------|
E|--5---3---5---3---5---3---5---3---|--5---3---5---3---5---3---5---3---|


                                   (AT)
G|----------------------------------|----------------------------------|
D|----------------------------------|----------------------------------|
A|----------------------------------|----------------------------------|
E|--5---3---5---3---5---3---5---3---|----------------------------------|


albums
tabs

 

1