Search tabs:
Browse artists: 0-9 | A | B | C | D | E | F | G | H | I | J | K | L | M | N | O | P | Q | R | S | T | U | V | W | X | Y | Z
/ / / bass tab

Intro:

g:--------------------------------|--------------------------------|
d:--------------------------------|--------------------------------|
a:--------------------------------|--------------------------------|
e:5-------------------------------|4-------------------------------|

g:--------------------------------|--------------------------------|
d:--------------------------------|--------------------------------|
a:--------------------------------|--------------------------------|
e:2-------------------------------|0---------------------15/-------|


Verse:

g:--------------------------------|--------------------------------|
d:--------------------------------|--------------------------------|
a:--------------------------------|--------------------------------|
e:5-5-5-5-5-5-5-5-5-5-5-5-5-5-5-5-|4-4-4-4-4-4-4-4-4-4-4-4-4-4-4-4-|

g:--------------------------------|--------------------------------|
d:--------------------------------|--------------------------------|
a:--------------------------------|------------5-5-4-4-4-4-4-4-4-4-|
e:2-2-2-2-2-2-2-2-2-2-2-2-2-2-2-2-|0-0-0-0-0-0---------------------|

g:--------------------------------|--------------------------------|
d:--------------------------------|--------------------------------|
a:--------------------------------|--------------------------------|
e:5-5-5-5-5-5-5-5-5-5-5-5-5-5-5-5-|4-4-4-4-4-4-4-4-4-4-4-4-4-4-4-4-|

g:--------------------------------|--------------------------------|
d:--------------------------------|--------------------------------|
a:--------------------------------|----------------5-5-5-5-5-5-5-5-|
e:2-2-2-2-2-2-2-2-2-2-2-2-2-2-2-2-|0-0-0-0-0-0-0-0-----------------|

g:--------------------------------|--------------------------------|
d:--------------------------------|--------------------------------|
a:7-7-7-7-7-7-7-7-5-5-5-5-5-5-5-5-|9-9-9-9-9-9-9-9-7-7-7-7-7-7-7-7-|
e:--------------------------------|--------------------------------|


Chorus:

g:--------------------------------|--------------------------------|
d:--------------------------------|--------------------------------|
a:5-5-5-5-5-5-5-5-5-5-5-5-5-5-5-5-|4-4-4-4-4-4-4-4-4-4-4-4-4-4-4-4-|
e:--------------------------------|--------------------------------|

g:--------------------------------|--------------------------------|
d:--------------------------------|--------------------------------|
a:2-2-2-2-2-2-0-0-----------------|------------------------2-2-2-2-|
e:----------------4-4-4-4-4-4-2-2-|0-0-0-0-0-0-2-2-4-4-4-4---------|


albums
tabs

 

1