Search tabs:
Browse artists: 0-9 | A | B | C | D | E | F | G | H | I | J | K | L | M | N | O | P | Q | R | S | T | U | V | W | X | Y | Z
/ Sum 41 / All Killer No Filler (2001) / Fat Lip bass tab

SONG: FAT LIP
ARTIST: SUM 41
ALBUM: ALL KILLER NO FILLER
MASTERBASSER: CONE

This Tab By: 		Sim (drmike71@hotmail.com)
Original Tab  By: 	Jeremy (insaneryder14@dirtjump.net)
Another Tab By: 	Mike (mfzb22@hotmail.com)
and: 			New_found_gloryboy@hotmail.com


Basically the other tabs had the basic song down, but some of the licks were
not included in their tabs, and after listening at high volume i think
i've got all the variations and little fills in. Some of this may be the 
same
as the other tabs, but i worked all of it out without reference to other 
tabs.

INTRO

G|--------|--------------------------------|
D|--------|--------------------------------|
A|--------|--------------------------------|
D|-0p2/12-|-0p2-2-0p2/7--------------------|

MAIN VERSE

G|---|------------|
D|-22|------------|
A|---|22-0--------|
D|---|-----7-6-4-2|

BRIDGE

PLAY THIS BOTH TIMES| THIS 1st TIME ONLY  |THIS LEADING TO CHORUS
G|-------------------|--------------------|----------44-22-11--|
D|-------------------|--------------------|6666-6666---------44|
A|-------------------|4444-4444-0000-22-44|--------------------|
D|2222-2222-2222-2222|--------------------|--------------------|

CHORUS

G|--------------------------------------------------------------|
D|-2-----------2-------------------------------2----------------|
A|---22-44-2-4---4-2-------------2/7-22-44-2-4---4-2------------|
D|-------------------66-77-66-77---------------------66-77-66-77|

PRE INTERLUDE

G|-----------------|
D|-----------------|
A|---------------0-|
D|-22-22-2-22-22---|

INTERLUDE

G|-----------------------------------|
D|--------------------2--------------|
A|-2p4----22-44-0p2p4-------22-44----|
D|-----22---------------22-----------|

POST INTERLUDE

G|----------------------------------------|
D|----------------------------------------|
A|----------------------------------------|
D|0000-0000-0000-0000-0000-0000-0000-0000-|


END CHORUS VARIATION

PLAY CHORUS TWICE THEN PLAY THIS

G|---------------------------------------------------------|
D|---------------------------------------------------------|
A|-777-666-444/777--------------777-999-444/777------------|
D|------------------66-77-66-77-----------------66-77-66-77|


Sum 41 albums
2004 Chuck
2002 Does This Look Infected?
2001 All Killer No Filler
2000 Half Hour Of Power
All Killer No Filler tabs
01Intro tabbass tab
02Nothing On My Back tabbass tab
03Never Wake Up tabbass tab
04Fat Lip tabbass tab
05Rhythms tabbass tab
06Motivation tabbass tab
07In Too Deep tabbass tab
08Summer tabbass tab
09Handle This tabbass tab
10Crazy Amanda tabbass tab
11All She's Got tabbass tab
12Heart Attack tabbass tab
13Pain For Pleasure tabbass tab

 

1