Search tabs:
Browse artists: 0-9 | A | B | C | D | E | F | G | H | I | J | K | L | M | N | O | P | Q | R | S | T | U | V | W | X | Y | Z
/ / / bass tab

Tabbed By: Jeordie Warner  craig.murphy@blueyonder.co.uk
Band: The Cure
Song: Maybe Someday
Album(s): Bloodflowers
Bassist: Simon Gallup
Tuneing: Standard E A D G

http://www.jeordiesden.tk
G-----------------------------------------------------------
D-----------------------------------------------------------
A-----------------------------------------------------------
E ------10\\-------------------------------------------------

G-----------------------------------------------------------
D-----------------------------------------------------------
A---------3-3--3-----------------------3-3--3---------------
E--3-3---3-------3-3-3/--10-10\\-3--3-3-----------3-2-2--2---

2nd riff

G-----------------------------------------------------------
D-----------------------------------------------------------
A-----3-3--3-5-5--5-7-7--7----------------------------------
E-----------------------------------------------------------

3rd riff

G-----------------------------------------------------------
D-----------------------------------------------------------
A---0-2-2--2-3-3--3-5-5--5----------------------------------
E-----------------------------------------------------------

4th riff

G-----------------------------------------------------------
D-----------------------------------------------------------
A-------77-777-777-777-777-88-888-888-888-888---------------
E-----------------------------------------------------------


albums
tabs

 

1