Search tabs:
Browse artists: 0-9 | A | B | C | D | E | F | G | H | I | J | K | L | M | N | O | P | Q | R | S | T | U | V | W | X | Y | Z
/ / / bass tab

Tabbed By: Jeordie Warner  craig.murphy@blueyonder.co.uk
Band: The Cure
Song: Where The Birds Always Sing
Album(s): Bloodflowers
Bassist: Simon Gallup
Tuneing: Standard E A D G


Intro/Outro

G:---------------------------------------------------
D:---------------------------------------------------
A:-0-0-0--0-0--0-0--0-0-0-0-2-2-2--2-2--2-2--2-2-2-2-
E:---------------------------------------------------

G:---------------------------------------------------
D:---------------------------------------------------
A:-3-3-3--3-3--3-3--3-3-3-3-5-5-5--5-5--5-5--5-5-5-5-
E:---------------------------------------------------

G:---------------------------------------------------
D:---------------------------------------------------
A:-7-7-7--7-7--7-7--7-7-7-7-9-9-9--9-9--9-9--9-9-9-9-
E:---------------------------------------------------

G:-------------------------------------------
D:-------------------------------------------
A:-10-10-10--10-10--10-10--10-10-10-10-12----
E:-------------------------------------------




Riff 1
(Main Riff)

G:---------------------------------------------
D:---------------------------------------------
A:-7-7-7-7\\--5-5-5-5\\--3-3-3-3-----------------
E:-----------------------------5--3-5--3-5-3-5-

Play this every third time:
G:-----------------------------------------------
D:-----------------------------------------------
A:-7-7-7-7/10--5-5-5-5\\--3-3-3-3-----------------
E:-------------------------------5--3-5--3-5-3-5-

Riff 2

G:---------------------------------------------------
D:---------------------------------------------------
A:-2-2-2--2-2--2-2--2-2-2-2-5-5-5--5-5--5-5--5-5-5-5-
E:---------------------------------------------------

Riff 3

G:---------------------------------------------
D:---------------------------------------------
A:-7-7-7-7\\--5-5-5-5\\--3-3-3-3-3--3-3--3-3-3-3-
E:---------------------------------------------

Riff 4

G:---------------------------------------------------
D:---------------------------------------------------
A:-0-0-0--0-0--0-0--0-0-0-0-2-2-2--2-2--2-2--2-2-2-2-
E:---------------------------------------------------

G:---------------------------------------------------
D:---------------------------------------------------
A:-0-0-0--0-0--0-0--0-0-0-0-5-5-5--5-5--5-5--5-5-5-5-
E:---------------------------------------------------

Riff 5
(During Guitar Solo)

G:------------------------------------------
D:-5-5-4-4-2-2-0-0--------------------------
A:-----------------3--3-3-3-----------------
E:--------------------------5--3-5--3-5-3-5-

G:------------------------------------------
D:-5-5-4-4-2-2-0-0--------------------------
A:-----------------3--3-3-3-----------------
E:--------------------------5--3-5--3-5-3-5-

G:-------------------9-9-12-12-14-14-16-16-
D:-5-5-7-7-9-9-12-12-----------------------
A:-----------------------------------------
E:-----------------------------------------

G:-14-14-12-12-11-11-9-9-7-7-5-5-4-4-2-2-
D:---------------------------------------
A:---------------------------------------
E:---------------------------------------

Riff 6

G:---------------------------------------------
D:---------------------------------------------
A:-7-7-7-7\\--5-5-5-5\\--2-2-2-2-3--3-3--3-3-3-3-
E:---------------------------------------------


http://www.jeordiesden.tk


albums
tabs

 

1