Search tabs:
Browse artists: 0-9 | A | B | C | D | E | F | G | H | I | J | K | L | M | N | O | P | Q | R | S | T | U | V | W | X | Y | Z
/ / / bass tab

Artist:The Cure
Song:The End of the world
Album:The Cure

Instructions:Play as is

                                    x2
||-9---7-9-7--------------9--7-7----||
||-----------10---7-10--7--------10-||
||----------------------------------||
||----------------------------------||

|-12---10-12-10-9------------12--10-10-9----|
|------------------12-12--10----------------|
|-------------------------------------------|
|----------------------------------------8\\-|

|-----------12-10----|-----------12\\-|
|----10--------------|----10---------|
|-12-----12----------|-12-----12-----|
|-----------------8\\-|---------------|

                                                      x2
||----------------------------------------------------||
||----------------------------------------------------||
||-3-3-3-3-3-3-3\\-------------------------------------||
||---------------5-5-5-5-5-5-5\\0-0-0-0-0-0-0-1-1-1-1--||

|---------------------------------------------------|
|---------------------------------------------------|
|-3-3-3-3-3-3-3/5-5-5-5-5-5-5/7-7-7-7-7-7-7/8-8-8-8-|
|---------------------------------------------------|


|---------------------------------|-------------------------|
|---------------------------------|-------------------------|
|-5-5-5-5-5-5-5-5\\----------------|-5-5-5-5-5-5-5-5---------|
|-----------------1-1-1-1-1-1-1-1-|-----------------1-1-1-1-|

                                   x2
||---------------------------------||--------------------------|
||---------------------------------||--------------------------|
||-------------------------3---3-5-||--------------------------|
||-3-3-3-3-3-3-3-3-5-5-5-5---5-----||-3-3-3-3-3-3-3-3-5-5-5-5\\-|

                                    x2
||-9---7-9-7--------------9--7-7----||
||-----------10---7-10--7--------10-||
||----------------------------------||
||----------------------------------||

|-12---10-12-10-9------------12--10-10-9----|
|------------------12-12--10----------------|
|-------------------------------------------|
|----------------------------------------8\\-|

|-----------12-10----|-----------12\\-|
|----10--------------|----10---------|
|-12-----12----------|-12-----12-----|
|-----------------8\\-|---------------|

|---------------------------------------------------|
|---------------------------------------------------|
|-3-3-3-3-3-3-3\\------------------------------------|
|---------------5-5-5-5-5-5-5\\0-0-0-0-0-0-0-1-1-1-1-|

                                                        x2
||------------------------------------------------------||
||------------------------------------------------------||
||-3-3-3-3-3-3-3/-5-5-5-5-5-5-5/-7-7-7-7-7-7-7/-8-8-8-8-||
||------------------------------------------------------||


||---------------------------------|--------------------------|
||---------------------------------|--------------------------|
||-5-5-5-5-5-5-5-5\\----------------|-5-5-5-5-5-5-5-5\\---------|
||-----------------1-1-1-1-1-1-1-1-|------------------1-1-1-1-|

                                   x2
||---------------------------------||--------------------------|
||---------------------------------||--------------------------|
||-------------------------3---3-5-||--------------------------|
||-3-3-3-3-3-3-3-3-5-5-5-5---5-----||-3-3-3-3-3-3-3-3-5-5-5-5\\-|


|---------------------------------|-------------------------|
|---------------------------------|-----------------3-3-3-3-|
|-1-1-1-1-1-1-1-1-----------------|-1-1-1-1-1-1-1-1---------|
|-----------------1-1-1-1-1-1-1-1-|-------------------------|

                                   x2
||-----------------2-2-2-2-2-2-2-2-||-3-3-3-3-3-3-3-3-----------------|
||-2-2-2-2-2-2-2-2-----------------||-----------------3-3-3-3-3-3-3-3-|
||---------------------------------||---------------------------------|
||---------------------------------||---------------------------------|

                                   x2
||-----------------2-2-2-2-2-2-2-2-||----------------2-2-2-2-|
||-2-2-2-2-2-2-2-2-----------------||2-2-2-2-2-2-2-2---------|
||---------------------------------||------------------------|
||---------------------------------||------------------------|

                                    x2
||-9---7-9-7--------------9--7-7----||
||-----------10---7-10--7--------10-||
||----------------------------------||
||----------------------------------||

|-12---10-12-10-9------------12--10-10-9----|
|------------------12-12--10----------------|
|-------------------------------------------|
|----------------------------------------8\\-|

                      x3
||-----------12-10----||-----------12\\-|
||----10--------------||----10---------|
||-12-----12----------||-12-----12-----|
||-----------------8\\-||---------------|

END


albums
tabs

 

1