Search tabs:
Browse artists: 0-9 | A | B | C | D | E | F | G | H | I | J | K | L | M | N | O | P | Q | R | S | T | U | V | W | X | Y | Z
/ The Cure / Disintegration (1989) / Love Song bass tab

LOVESONG by The Cure

LUIS BONILLA H.
elgranluis666@yahoo.com

Hi everyone. I noticed that the tab for lovesong was terribly limited. 
So here it is, lovesong, by the CURE, including some variations used 
in live recordings. Have fun.  


Verse:  

Main riff:
1               2                    3                4
G-------------------------------------------------------------------
D--7-7-7-7-9-10--------------7--7--9--------10--9--10--------9-9-10-
A---------------10-10-10-10----------8-8--8-----------7 7 7 7------
E-------------------------------------------------------------------
The variations are as follow:
insert where the number applies

1a:
                  1b:                                 
                               
g--------------   ------------
d--7-7-7-7-10-9   --7-7-9-9-10
a--------------   ------------ 
e--------------   ------------

2a:                        

g---------------------     
d--------------7-7-9-9
a--10-10-10-10--------
e---------------------

3a:               3b:

g--------------   --------------
d-------9-10-10   ---------10-9-
e--8-8-8-------   --8-8-8-8-----
a--------------   --------------

4a:                  4b:              4c:

g-----------------   -------------    ------------
d----------10-10-9   -----9-9-9-10    -----9-10-9-
e--7-7-7-7--------   --7-7-7------    --7-7--7-7-7
a-----------------   -------------    ------------


Ok, You can figure out the rest of the variations by yourself.
 Now the chorus



       
G---------------------------------------------10-9---
D-----------------(9)----------9-9-10--7--7-7-7------
A--8--8-8-8-8-8-10-10-10-10--------------------------
E---------------------------------------------------- 
                                                      
                         

G---------------9-9-10-
D---10-10-10-10--------
A----------------------
E----------------------


Ok. U can figure ou the variations by yourself. In case u cant, you
 are ready to impress your friends. Hope u like it.


The Cure albums
2004 The Cure
2000 Bloodflowers
1996 Wild Mood Swings
1992 Wish
1989 Disintegration
1987 Kiss Me, Kiss Me, Kiss Me
1986 Staring At The Sea (The Singles)
1985 Head on the Door
1984 Japanese Whispers
1982 Pornography
1981 Faith
1980 Boys Don't Cry
1980 Seventeen Seconds
1979 Three Imaginary Boys
Disintegration tabs
01Plainsong tabbass tab
02Pictures Of You tabbass tab
04Love Song tabbass tab
05Last Dance tabbass tab
06Lullaby tabbass tab
07Fascination Street tabbass tab
08Prayers For Rain tabbass tab
09The Same Deep Water As You tabbass tab
10Disintegration tabbass tab
11Homesick tabbass tab
12Untitled tabbass tab

 

1