Search tabs:
Browse artists: 0-9 | A | B | C | D | E | F | G | H | I | J | K | L | M | N | O | P | Q | R | S | T | U | V | W | X | Y | Z
/ The Cure / Disintegration (1989) / Pictures Of You bass tab

Tabbed By: Jeordie Warner  craig.murphy@blueyonder.co.uk
Band: The Cure
Song: Pictures Of you
Album(s): Disinegration, Greatets Hits
Bassist: Simon Gallup
Tuneing: Standard E A D G


Riff 1

Approx. time-0:01
G:--------------------------------------------------------------
D:--------7----7--------7h9-9-9--------9----9--------9h11-11-11-
A:-7--7-7----7----7-7-7---------9--9-9----9----9-9-9------------
E:--------------------------------------------------------------

Riff 2
There are at least four ways to play Riff 2. Choose any one you like or alternate between all of them. The studio version mostly alternates between Riff 2A and 2B where the Show version mostly plays 2C and 2D.

Approx. time-1:31

Riff 2A
G:------------------------9-9-9-9-7----------------------9-9-9-9-
D:-7------------------------------0--0-0-0--0-0--0-0-0-0---------
A:-0--0-0-0--0-0--0-0-0-0----------------------------------------
E:---------------------------------------------------------------

Riff 2B
G:------------------------9-9-9-9-7----------------------11-11-11-11-
D:-7------------------------------0--0-0-0--0-0--0-0-0-0-------------
A:-0--0-0-0--0-0--0-0-0-0--------------------------------------------
E:-------------------------------------------------------------------

Riff 2C

G:--------------------------------7----------------------9-9-9-9-
D:-7----------------------9-9-9-9-0--0-0-0--0-0--0-0-0-0---------
A:-0--0-0-0--0-0--0-0-0-0----------------------------------------
E:---------------------------------------------------------------

Riff 2D
G:--------------------------------7----------------------11-11-11-11-
D:-7----------------------9-9-9-9-0--0-0-0--0-0--0-0-0-0-------------
A:-0--0-0-0--0-0--0-0-0-0--------------------------------------------
E:-------------------------------------------------------------------

Riff 3

Approx. time-4:30
G:---------------------------------------------------9-9-9-9-
D:------------------------------0--0-0-0--0-0--0-0-0---------
A:-7--7-7-7--7-7--7-7-7-9-9-9-9------------------------------
E:-----------------------------------------------------------

Riff 4

Approx. time-5:59
G:---------------------------------------------------------
D:---------------------------------------------------------
A:-0--0-0-0--0-0--0-0--0-0-0-0-2--2-2-2--2-2--2-2--2-2-2-2-
E:---------------------------------------------------------

G:---------------------------------------------------------
D:---------------------------------------------------------
A:-4--4-4-4--4-4--4-4--4-4-4-4-5--5-5-5--5-5--5-5--5-5-5-5-
E:---------------------------------------------------------

G:---------------------------------------------------------
D:---------------------------------------------------------
A:-4--4-4-4--4-4--4-4--4-4-4-4-5--5-5-5--5-5--5-5--5-5-5-5-
E:---------------------------------------------------------

G:---------------------------------------------------------|-----------
D:---------------------------------------------------------|-----------
A:-7--7-7-7--7-7--7-7--7-7-7-7-9--9-9-9--9-9--9-9--9-9-9-9-|-12--------
E:---------------------------------------------------------|-----------


http://www.jeordiesden.tk


The Cure albums
2004 The Cure
2000 Bloodflowers
1996 Wild Mood Swings
1992 Wish
1989 Disintegration
1987 Kiss Me, Kiss Me, Kiss Me
1986 Staring At The Sea (The Singles)
1985 Head on the Door
1984 Japanese Whispers
1982 Pornography
1981 Faith
1980 Boys Don't Cry
1980 Seventeen Seconds
1979 Three Imaginary Boys
Disintegration tabs
01Plainsong tabbass tab
02Pictures Of You tabbass tab
04Love Song tabbass tab
05Last Dance tabbass tab
06Lullaby tabbass tab
07Fascination Street tabbass tab
08Prayers For Rain tabbass tab
09The Same Deep Water As You tabbass tab
10Disintegration tabbass tab
11Homesick tabbass tab
12Untitled tabbass tab

 

1