Search tabs:
Browse artists: 0-9 | A | B | C | D | E | F | G | H | I | J | K | L | M | N | O | P | Q | R | S | T | U | V | W | X | Y | Z
/ The Cure / Disintegration (1989) / Plainsong bass tab

-------------------------------------------------------------------------

ARTIST : The Cure
SONG : Plainsong
ALBUM : Disintegration
BASSIST : Simon Gallup

-------------------------------------------------------------------------


This is the tab how I play it, playing over the guitar overlay
on my bass. It sounds beautiful, much like the song. The timings
are easy to hear and to play.


-------------------------------------------------------------------------


MAIN RIFF
---------

When guitar overlay isn\\'t present, play this. The slide from fret 15
indicates a slide back to 3, and so on. It sounds really nice if you can
get the slide perfect.

---------

G ||---------------------------------------------------------------------
D ||---------------------------------------------------------------------
A ||-----3----8----3----8----10----12----15/-----------------------------
E ||---------------------------------------------------------------------



GUITAR OVERLAY
--------------

Each part is obvious when playing along with the song. Sliding to each
following note will create a nice smooth \\'progressive sound\\'.

--------------

G ||-----7/9----9----7----7----14----14----12----------------------------
D ||---------------------------------------------------------------------
A ||---------------------------------------------------------------------
E ||---------------------------------------------------------------------

G ||-----7/9----9----7----7----14----14----12----10----10----10/12----14-
D ||---------------------------------------------------------------------
A ||---------------------------------------------------------------------
E ||---------------------------------------------------------------------

G ||-----5----5----5----7/9----------------------------------------------
D ||---------------------------------------------------------------------
A ||---------------------------------------------------------------------
E ||---------------------------------------------------------------------

G ||-----7/9----9----7----7----14----14----12----10----10----10/12----14-
D ||---------------------------------------------------------------------
A ||---------------------------------------------------------------------
E ||---------------------------------------------------------------------

G ||-----5----5----5----7/9----9/0----2----2----5----5----5----7/9-------
D ||---------------------------------------------------------------------
A ||---------------------------------------------------------------------
E ||---------------------------------------------------------------------

G ||-----0----2----2/5----5----7----7------------------------------------
D ||---------------------------------------------------------------------
A ||---------------------------------------------------------------------
E ||---------------------------------------------------------------------



ENDING
------

G ||-----5----5----5----7----5/4-----------------------------------------
D ||--------------------------------5----2----3----2---------------------
A ||----------------------------------------------------3----3----5----0-
E ||---------------------------------------------------------------------



IMPROVISION
-----------

This song is easy to add to with your own notes, but obviously at the
right time and in the right time sequence. This is how I play my fills.

--------------

G ||---------------------------------------------------------------------
D ||--------------------6/8/5-------------6---4---------------11---------
A ||-----3----5----8------------3----5-------------8----10----------12---
E ||---------------------------------------------------------------------

G ||-----7/9----9-------------7/9/7----14----14/10/12-----------7/9------
D ||-----------------7/9/7-------------------------------7/9-------------
A ||---------------------------------------------------------------------
E ||---------------------------------------------------------------------


The Cure albums
2004 The Cure
2000 Bloodflowers
1996 Wild Mood Swings
1992 Wish
1989 Disintegration
1987 Kiss Me, Kiss Me, Kiss Me
1986 Staring At The Sea (The Singles)
1985 Head on the Door
1984 Japanese Whispers
1982 Pornography
1981 Faith
1980 Boys Don't Cry
1980 Seventeen Seconds
1979 Three Imaginary Boys
Disintegration tabs
01Plainsong tabbass tab
02Pictures Of You tabbass tab
04Love Song tabbass tab
05Last Dance tabbass tab
06Lullaby tabbass tab
07Fascination Street tabbass tab
08Prayers For Rain tabbass tab
09The Same Deep Water As You tabbass tab
10Disintegration tabbass tab
11Homesick tabbass tab
12Untitled tabbass tab

 

1