Search tabs:
Browse artists: 0-9 | A | B | C | D | E | F | G | H | I | J | K | L | M | N | O | P | Q | R | S | T | U | V | W | X | Y | Z
/ / / bass tab

The Cure

  Mint Car

  Bass tab
from: big_fortuna@hotmail.com

  This song is easy to play.
  I really don't remember the progression of the song but this are the whole 
parts,
just grab the record and hear the song a couple of times or follow the 
lyrics.
  Always play a Cure song with a little dosis of chorus effect!

   Main Figure, all verses:
G:---------------------------------------------------------------
D:------7-9--7---------------------------------------------------
A:--5-----------9-7---7-9--7--5-7---7-9--7--5--------------------
E:---------------------------------------------7-7-7-5--5-5-5----


   Chorus:
G:-------------------------------------------------------------------6----6---------7----7----
D:-------------------------------------7----7---------9----9----------------------------------
A:-------7----7---------9----9----------------------------------------------------------------
E:--5--5----5---5--7--7----7---7--5--5----5---5--7--7----7---7--5--5----5---5--7--7----7---7--

G:------------------------------------
D:------------------------------------
A:-------5----5-----------------------
E:--3--3----3---3--5-5-5-5-5-5-5-5----


   After second chorus goes this figure:
G:---------------------------------------------------------------------------------
D:-------5----5---------7----7-----------9-----9----------7----7---------5----5----
A:--7--7----7---7--9--9----9---9--10--10----10---10--9--9----9---9--7--7----7---7--
E:---------------------------------------------------------------------------------

G:-------------------------------------------------------
D:-------7----7-----------9-----9-----7-7-7-7-7-7-7-7----
A:--9--9----9---9--10--10----10---10---------------------
E:-------------------------------------------------------


   The end is the same main figure with a slightly change of notes at the 
end:
G:----------------------------------------------------------||
D:------7-9--7----------------------------------------------||
A:--5-----------9-7---7-9--7--5-7---7-9--7--10---------0----||
E:----------------------------------------------7-9-10------||


  Well it isn't hard to play, actually it is a great bass line to play with. 
Enjoy!

  Any coments or whatever mail me to: big_fortuna@hotmail.com
  Transcribed by Carlos Macera.


  Support the Bass Tab Archive Tabbing Army!!!!!!!


albums
tabs

 

1