Search tabs:
Browse artists: 0-9 | A | B | C | D | E | F | G | H | I | J | K | L | M | N | O | P | Q | R | S | T | U | V | W | X | Y | Z
/ / / bass tab

Artist: The Who		
Song:   Behind blue eyes
Album:  Who's next

Tuning: Standart (E A D G)

Tabbed by R4Z0R


/ - slide up
\\ - slide down
h - hammer on
~ - let ring


Intro (0:00)

G|-----------|
D|--R-E-S-T--|
A|-----------|
E|-----------|


Chorus (0:37)

G|--------|   |--------------|-------------------|
D|7-5-----|   |---5----------|-------------------|
A|----7-5-|   |3~---3/5~---7-|10~-----10--10-10\\-|
E|--------|   |--------------|-----10------------|

G|----------------|---------------|
D|---5------7-----|---------------|
A|3~---3/5~----5--|7--7-7~---7-7\\-|
E|----------------|---0-0~---0----|

G|------------|---5-2---------|--------------|------------------|----------------|
D|-----4------|-------5-2-----|-----7-------7|-----7-7~-------7-|7~----7-7~------|
A|2~-----2~---|3~---------3-4-|5~-----5~---5-|-----7----------7-|------7---------|
E|------------|---------------|--------------|5~--(5)----5-5~(5)|---5-(5)----5-7-|


Verse(1:13)

G|------------|-----------|---------------|--------------|
D|-----5~-----|-------7---|---5-----5-7---|7~-----7~-----|
A|7~----------|5~-------5-|3~---3~--------|------------5-|
E|----------5-|-----------|-------------5-|-----5----5---|

G|----------|---7-4----------|--------------|----------|
D|-----5~---|-------7-5------|---5-----55h7~|(7)--7-7~-|
A|7~--------|5~---------7-55-|3~---3~-------|----------|
E|----------|----------------|--------------|-5~-(5)---|


Chorus (1:43)

G|--------|   |--------------|------------------|
D|7-5-----|   |---5------7---|------------------|
A|----7-5-|   |3~---3/5~---5-|10~-----10~---10\\-|
E|--------|   |--------------|-----10-----------|

G|----------------|---------------|
D|---5------7-----|---------------|
A|3~---3/5~----5--|7--7-7~---7-7\\-|
E|----------------|---0------0----|

G|------------|---5-2---------|--------------|--------------|------------|
D|-----4------|-------5-2-----|-----7------7-|-----7-7~---7-|7~-----7~---|
A|2~-----2~---|3~---------3-4-|5~-----5~-----|-----7------7-|-----------5|
E|------------|---------------|--------------|5~--(5)----(5)|-----5------|


Interlude (2:18)

G|-----|   |-------|------------|------------|------------|------------|-----| x2
D|-----|   |99-77--|-----99-77--|-----99-77--|-----99-55--|-----99-77--|-----|
A|7-77-|   |------7|7-77-------7|7-77-------7|7-77-------5|5-55-------5|5-55-|
E|-----|   |-------|------------|------------|------------|------------|-----|

G|-------|------------|------------|
D|99-77--|-----99-77--|-----99-77-9|
A|------7|7-77-------7|7-77--------|
E|-------|------------|------------|

G|-----------------|-----------------|-----------------|---------------|
D|99999997-5------9|99999997-5------9|99999997-5------9|9999999~-------|
A|-----------5-5~--|-----------5-5~--|-----------5-5~--|---------------|
E|-----------------|-----------------|-----------------|-----------5-7-|


Outro (3:20)

G|----------|---7-4---------|-------------|----------|
D|-----5~---|-------7-5-----|---5-----5h7~|(7)-------|
A|7~--------|5~---------7-5-|3~---3~------|----------|
E|----------|---------------|-------------|-5-5-5~---|



I think this song is played on an frettless bass cause sometimes it sounds a
little bit weired when you play it on a fretted bass...

ratings and comments are welcome!


albums
tabs

 

1