Search tabs:
Browse artists: 0-9 | A | B | C | D | E | F | G | H | I | J | K | L | M | N | O | P | Q | R | S | T | U | V | W | X | Y | Z
/ Therapy? / Born in a crash (1993) / Nausea bass tab

Intro
G |--------------------------------|--------------------------------|
D |--------------------------------|--------------------------------|
A |-7---7---7---------------8---8--|-8---------------8---8----------|
E |-------------7---7---7----------|-----8---8---8-----------8---8--|

Chorus
G |--------------------------------|--------------------------------||
D |--------------------------------|--------------------------------||
A |-7---7---7---------------8---8--|-8---------------8-------8--10--||
E |-------------7---7---7----------|-----8---8---8-------8----------|| 4x

Verse A
G |--------------------------------|--------------------------------||
D |--------------------------------|--------------------------------||
A |-7---7---7---------------8---8--|--------------------------------||
E |-------------7---7---7----------|--------------------------------|| 4x

Verse B
G |--------------------------------|--------------------------------||
D |--------------------------------|--------------------------------||
A |-7---7---7---------------8---8--|-----8-------8--10--10---8---8--||
E |-------------7---7---7----------|--------------------------------|| 3x

G |--------------------------------|--------------------------------|
D |--------------------------------|-----------------8--------------|
A |-7---7---7---------------8---8--|-----8-------8-----------8--10--|
E |-------------7---7---7----------|---------------------8----------|

Break
G |-------------------------9------|-----------------11------9------|
D |-------------9------------------|-----9--------------------------|
A |-7------------------------------|--------------------------------|
E |--------------------------------|--------------------------------|

G |------------------------10------|-----------------12------10-----|
D |-8----------10------------------|----10--------------------------|
A |--------------------------------|--------------------------------|
E |--------------------------------|--------------------------------|

Ending Intro
G |--------------------------------|--------------------------------|
D |--------------------------------|--------------------------------|
A |-7---7---7-\10--10--10--12------|--------------------------------|
E |--------------------------------|--------------------------------|

Ending
G |--------------------------------|--------------------------------||
D |--------------------------------|--------------------------------||
A |-7---7---7---------------8------|--------------------------------||
E |-------------7---7---7----------|--------------------------------|| 4x

G |--------------------------------|--------------------------------|
D |--------------------------------|--------------------------------|
A |--------------------------------|-3---2----------\---------------| (Slide to 7 of Break)
E |--------------------------------|--------------------------------|

End Chord
G |-9------------------------------|
D |-9------------------------------|
A |-7------------------------------|
E |--------------------------------|

[00:04] Intro 4x
[00:18] Chorus

[00:32] Verse A
[00:45] Verse B
[00:48] Chorus
Repeat This Block

[01:49] Break 4x
[02:15] Intro 3x | Ending Intro
[02:27] Intro 4x
[02:41] Chorus
[02:55] Chorus
[03:09] Ending
[03:26] Break + End Chord


Therapy? albums
2003 High Anxiety
2001 Shameless
2000 Suicide Pact: You First
1998 Semi-Detached
1995 Infernal Love
1994 Troublegum
1993 Nurse
1993 Born in a crash
Born in a crash tabs
01Turn tabbass tab
02Speedball tabbass tab
03Bloody blue tabbass tab
04Neck freak tabbass tab
05Opal mantra tabbass tab
06Innocent X tabbass tab
08Nausea tabbass tab

 

1