Search tabs:
Browse artists: 0-9 | A | B | C | D | E | F | G | H | I | J | K | L | M | N | O | P | Q | R | S | T | U | V | W | X | Y | Z
/ Therapy? / Born in a crash (1993) / Neck freak bass tab

Note: Okay, it's not in dropped D, but there must be a bass in the intro somewhere.
      Anyway, I play it...

Intro
G |--------------| |------------------|
D |--------------| |------------------|
A |--------------| |------------------|
D |-2~~----------| |-------------9-\--|

G |--------------------------------||
D |--------------------------------||
A |--------------------------------||
D |-2-----2---2-2---0-0---2---3----|| 16x

Verse
G |--------------------------------|
D |--------------------------------|
A |-7-----7---7-7---5-5---7---8----|
D |--------------------------------|

Chorus
G |--------------------------------|--------------------------------|
D |--------------------------------|--------------------------------|
A |-3---3---3---3---3---3---2---3--|--------------------------------|
D |--------------------------------|-5---5---5---5---5---5---4---5--|

G |--------------------------------|--------------------------------|
D |--------------------------------|--------------------------------|
A |--------------------------------|--------------------------------|
D |-2-2-2---2---2-2---2-2---2---3--|-2-2-2---2---2-2---2-2---2---3--|

Break A
G |--------------------------------||
D |-2------------------------------||
A |--------------------------------||
D |-------------------2-----2------|| 8x

G |--------------------------------|--------------------------------||
D |--------------------------------|---------------3---3-3---3---5--||
A |--------------------------------|--------------------------------||
D |-2---2---2---2-2---2-2---2---2-2|---2-2---2----------------------|| 12x

Break B
G |--------------------------------|--------------------------------||
D |--------------------------------|--------------------------------||
A |-5---5---5---5-5---3-3---3---3--|-3---7-7---7-7---5-5---5---5----||
D |--------------------------------|--------------------------------|| 4x

Outro
G |--------------------------------||     |--------------------------------|
D |-------------------3-----2------||     |--------------------------------|
A |--------------------------------||     |--------------------------------|
D |-2------------------------------|| x 3 |-2-----------------3------2-----|

G |--------------------------------||     |--------------------------------|
D |-------------------2------------||     |--------------------------------|
A |--------------------------------||     |--------------------------------|
D |-2---------------------------3--|| 4x  |-2------------------------------|


[00:00] (No Bass, I think)
[00:08] Intro

[00:47] Verse 8x
[01:01] Verse 8x
[01:17] Chorus
Repeat This

[02:18] Verse 8x
[02:34] Break A
[03:52] Break B (Crubmle...)
[04:07] Intro 4x (I'm ***ed...)
[04:39] Verse 8x
[04:53] Outro


Therapy? albums
2003 High Anxiety
2001 Shameless
2000 Suicide Pact: You First
1998 Semi-Detached
1995 Infernal Love
1994 Troublegum
1993 Nurse
1993 Born in a crash
Born in a crash tabs
01Turn tabbass tab
02Speedball tabbass tab
03Bloody blue tabbass tab
04Neck freak tabbass tab
05Opal mantra tabbass tab
06Innocent X tabbass tab
08Nausea tabbass tab

 

1