Search tabs:
Browse artists: 0-9 | A | B | C | D | E | F | G | H | I | J | K | L | M | N | O | P | Q | R | S | T | U | V | W | X | Y | Z
/ Therapy? / Born in a crash (1993) / Opal mantra bass tab

Comments: Bass is almost drowned in the mix, but I used a live version to get the most out of it.
 Play the chorus quite fast.

Slide
G |--------------------------------|--------------------------------|
D |--------------------------------|--------------------------------|
A |--------------------------------|--------------------------------|
E |--------------------------------|---------------13\--------------|

Verse
G |--------------------------------|--------------------------------|
D |--------------------------------|--------------------------------|
A |--------------------------------|-----------------6-^-5----------|
E |-3---3-------3-------3-------3--|-----3-------3-----------6---3--|

G |--------------------------------|--------------------------------|
D |--------------------------------|--------------------------------|
A |--------------------------------|--------------------------------|
E |-3---3-------3-------3-------3--|-----3-------1---1-\-3-^-4-^-3--|

Verse End
G |--------------------------------|--------------------------------|
D |--------------------------------|--------------------------------|
A |--------------------------------|--------------------------------|
E |-3---3-------3-------3-------3--|-----3-------1-------4------(3)-|

Chorus
G |--------------------------------|-------------5-------6---5------|
D |-5-------5-------5---5---\---6--|-----6---6-------------------6--|
A |--------------------------------|--------------------------------|
E |-------------3------------------|--------------------------------|

G |-------------5-----------3------|-3---3-------3-------3----------|
D |-3-------3-----------3----------|--------------------------------|
A |--------------------------------|--------------------------------|
E |--------------------------------|--------------------------------|

G |--------------------------------|-------------5-------6---5------|
D |-5-------5-------5---5---\---6--|-----6---6-------------------6--|
A |--------------------------------|--------------------------------|
E |-------------3------------------|--------------------------------|

G |-------------5-----------3------|-3---------\-8-------7----------|
D |-3-------3-----------3----------|--------------------------------|
A |--------------------------------|--------------------------------|
E |--------------------------------|--------------------------------|


[00:10] Slide

[00:13] Verse 4x (Replace last time with Verse End)
[00:37] Chorus
Repeat this block

[01:24] Chorus (I presume)
[01:35] Verse 2x (Replace last time with Verse End)
[01:47] Chorus 2x
[02:11] Verse 2x (Replace last time with Verse End)
(And you know what I'm talking about...)


Therapy? albums
2003 High Anxiety
2001 Shameless
2000 Suicide Pact: You First
1998 Semi-Detached
1995 Infernal Love
1994 Troublegum
1993 Nurse
1993 Born in a crash
Born in a crash tabs
01Turn tabbass tab
02Speedball tabbass tab
03Bloody blue tabbass tab
04Neck freak tabbass tab
05Opal mantra tabbass tab
06Innocent X tabbass tab
08Nausea tabbass tab

 

1