Search tabs:
Browse artists: 0-9 | A | B | C | D | E | F | G | H | I | J | K | L | M | N | O | P | Q | R | S | T | U | V | W | X | Y | Z
/ Therapy? / Born in a crash (1993) / Speedball bass tab

Verse
G |--------------------------------|--------------------------------|
D |--------------------------------|--------------------------------|
A |--------------------------------|----------------------------5---|
E |-0-----0-----0-----0-----0--3---|-0-----0-----0-----0-----3-(5\*)|
 (*) Slide down sometimes

Chorus
G |--------------------------------|--------------------------------|
D |-------------------3-----6------|-------------------3-----6------|
A |----------4-----------------4---|----------4-----------------4---|
E |-0-----0------------------------|-0-----0------------------------|


[00:00] Verse 4x
[00:12] Chorus 4x

[00:25] Verse 4x
[00:38] Chorus 4x
[00:51] Verse 4x
Repeat This

[01:24] Verse 4x
[01:37] Verse 6x (Bass Only)
[01:57] Chorus 4x
[02:10] Verse 6x


Therapy? albums
2003 High Anxiety
2001 Shameless
2000 Suicide Pact: You First
1998 Semi-Detached
1995 Infernal Love
1994 Troublegum
1993 Nurse
1993 Born in a crash
Born in a crash tabs
01Turn tabbass tab
02Speedball tabbass tab
03Bloody blue tabbass tab
04Neck freak tabbass tab
05Opal mantra tabbass tab
06Innocent X tabbass tab
08Nausea tabbass tab

 

1