Search tabs:
Browse artists: 0-9 | A | B | C | D | E | F | G | H | I | J | K | L | M | N | O | P | Q | R | S | T | U | V | W | X | Y | Z
/ Therapy? / Infernal Love (1995) / 30 Seconds bass tab

Main Riff
G |--------------------------------|--------------------------------|
D |--------------------------------|--------------------------------|
A |-2---2---2-2-2---2---2-2---2-3--|-2---2---2-2-2---2---2-2---2-3--|
E |--------------------------------|--------------------------------|

Ending A
G |--------------------------------|--------------------------------|
D |--------------------------------|--------------------------------|
A |-2---2---2-2-2---2---2-2---2-3--|-2---2---2-2-2------------------|
E |--------------------------------|-----------------3---3-3-3---5--|

Ending B
G |--------------------------------|--------------------------------|
D |--------------------------------|-----------------5---4----------|
A |-2---2---2-2-2---2---2-2-----3--|-2---2---2-2-2-----------5---3--|
E |--------------------------------|--------------------------------|

Chorus
G |--------------------------------|--------------------------------|
D |--------------------------------|--------------------------------|
A |-------------------------0---2--|-0---0---0---0-0---0-0---0---0--|
E |-3---3---3---3-3---3-3----------|--------------------------------|

G |--------------------------------|--------------------------------|
D |--------------------------------|--------------------------------|
A |-2---2---2---2-2---2-2---2---3--|-2---2---2---2-2---2-2---2---3--|
E |--------------------------------|--------------------------------|

G |--------------------------------|--------------------------------|
D |--------------------------------|--------------------------------|
A |--------------------------------|-----------------------------0--|
E |-3---3---3---3-3---3-3---3---3--|-0---0---0---0-0---0-0---0------|

G |--------------------------------|--------------------------------|
D |--------------------------------|--------------------------------|
A |-2-(Stop)-----------------------|--------------------------------| If double chorus do
E |--------------------------------|--------------------------------|  the 2nd bar.

Mid Part
G |--------------------------------|--------------------------------|
D |--------------------------------|--------------------------------|
A |-5---5-5---5-5---5---5-5---5-5--|--------------------------------|
E |--------------------------------|-5---5-5---5-5---5---5-5---5-5--|

G |--------------------------------|--------------------------------|
D |--------------------------------|--------------------------------|
A |-2---2-2---2-2---2---2-2---2-2--|---------------------------2-5--|
E |--------------------------------|-3---3-3---3-3---3---3-3--------|

G |--------------------------------|--------------------------------|
D |--------------------------------|--------------------------------|
A |-5---5-5---5-5---5---5-5---5-5--|--------------------------------|
E |--------------------------------|-5---5-5---5-5---5---5-5---5-5--|

G |--------------------------------|--------------------------------|
D |--------------------------------|--------------------------------|
A |-2-(Stop)-----------------------|--------------------------------|
E |--------------------------------|--------------------------------|

Outro A
G |--------------------------------|--------------------------------|
D |--------------------------------|--------------------------------|
A |--------------------------------|--------------------------------|
E |-3---3-3---3-3---3---3-3---3-3--|-5---5-5---5-5---5---5-5---5-5--|

Outro B
G |--------------------------------|--------------------------------|
D |--------------------------------|--------------------------------|
A |-2---2-2---2-2---2---2-2---2-2--|-5---5-5---5-5---5---5-5---5-5--|
E |--------------------------------|--------------------------------|

G |--------------------------------|--------------------------------|
D |--------------------------------|--------------------------------|
A |--------------------------------|--------------------------------|
E |-3---3-3---3-3---3---3-3---3-3--|-5---5-5---5-5---5---5-5---5-5--|

Outro C
G |--------------------------------|--------------------------------|
D |--------------------------------|--------------------------------|
A |-2---2-2---2-2---2---2-2---2-2--|-5---5-5---5-5---5---5-5---5-5--|
E |--------------------------------|--------------------------------|

G |--------------------------------|--------------------------------|
D |-5---5-5---5-5---5---5-5---5-5--|-7---7-7---7-7---7---7-7---7-7--|
A |--------------------------------|--------------------------------|
E |--------------------------------|--------------------------------|

Outro D
G |--------------------------------|-7---7-7---7-7---7---7-7---7-7--|
D |-9---9-9---9-9---9---9-9---9-9--|--------------------------------|
A |--------------------------------|--------------------------------|
E |--------------------------------|--------------------------------|

G |--------------------------------|--------------------------------|
D |-5---5-5---5-5---5---5-5---5-5--|-7---7-7---7-7---7---7-7---7-7--|
A |--------------------------------|--------------------------------|
E |--------------------------------|--------------------------------|

Outro E
G |-16--1616--1616--16--1616--1616-|-19--1919--1919--19--1919--1919-|
D |--------------------------------|--------------------------------|
A |--------------------------------|--------------------------------|
E |--------------------------------|--------------------------------|

G |-12--1212--1212--12--1212--1212-|-14--1414--1414--14--1414--1414-|
D |--------------------------------|--------------------------------|
A |--------------------------------|--------------------------------|
E |--------------------------------|--------------------------------|

[00:00] (Drums)
[00:10] Main Riff 3x | End A
[00:23] Main Riff | End A | Main Riff | End B
[00:37] Chorus
[00:51] Main Riff | End A | Main Riff | End B
[01:04] Chorus 2x
[01:17] Mid Part (How do we get from...)
[01:31] Main Riff | End A | Main Riff | End B
[01:45] Chorus 2x | Outro A (There Is A Light...)
[02:15] Outro B 5x
[02:42] Outro C 5x
[03:16] Outro E until fade


Therapy? albums
2003 High Anxiety
2001 Shameless
2000 Suicide Pact: You First
1998 Semi-Detached
1995 Infernal Love
1994 Troublegum
1993 Nurse
1993 Born in a crash
Infernal Love tabs
02Stories tabbass tab
03A Moment Of Clarity tabbass tab
05Bowels Of Love tabbass tab
06Misery tabbass tab
09Loose tabbass tab
1130 Seconds tabbass tab

 

1