Search tabs:
Browse artists: 0-9 | A | B | C | D | E | F | G | H | I | J | K | L | M | N | O | P | Q | R | S | T | U | V | W | X | Y | Z
/ Therapy? / Infernal Love (1995) / Loose bass tab

Verse A
G |--------------------------------|--------------------------------|
D |--------------------------------|--------------------------------|
A |--------------------------------|-5---5---5-5-5------------------| (I think there's a slide the 4th time
E |-5---5---5-5-0-3---3-3-3---0-3-5|---------------3---3-3-3-0-3-0-5|  toward high E)

Verse B
G |--------------------------------|-7---7---7-7-7\12-12-11-12------|
D |-----------------------------5-7|---------------------------9----|
A |--------------------------------|--------------------------------|
E |-5---5---5-5-0-3---3-3-3--------|--------------------------------|

G |--------------------------------|-7---7---7-7--------------------|
D |-----------------------------5-7|-------------5-7-----5----------|
A |--------------------------------|--------------------------------|
E |-5---5---5-5-0-3---3-3-3--------|--------------------------------|

Bridge
G |--------------------------------|
D |--------------------------------|
A |------------------------\7------| (After 1st verse could be high E)
E |-0-0-0-0-0-0-0-0-0-0-0-0--------|

Chorus
G |--------------------------------|-----------------------------7--|
D |---------4^5^4------------------|---------4^5^4\9---7---4-4-5----|
A |---------------5---5---5-5-5-5--|--------------------------------|
E |-3---3--------------------------|-3---3--------------------------|

G |--------------------------------|--------------------------------|
D |---------4^5^4------------------|--------------------------------|
A |---------------5---5---5-5-5-5--|------------------------\7------|
E |-3---3--------------------------|-0-0-0-0-0-0-0-0-0-0-0-0--------|

End Of Solo
G |--------------------------------|--------------------------------|
D |--------------------------------|--------------------------------|
A |--------------------------------|-5---5---5-5-5------------------|
E |-5---5---5-5-0-3---3-3-3---0-3-5|---------------0---0---0-0-0-0--|

Verse C
G |--------------------------------|--------------------------------|
D |--------------------------------|--------------------------------|
A |-3---3---3-3-3-3---1-1-1---1-1-0|---------------1---1---1-1-1-1--|
E |--------------------------------|-1---1---1-1-1------------------|

G |--------------------------------|--------------------------------|
D |-----------------------------0-1|-3---3---3-3-3------------------|
A |-3---3---3-3-0-1---1-1-1---1----|---------------1---1---1-1-1-1--|
E |--------------------------------|--------------------------------|

G |--------------------------------|---------------3---2------------|
D |--------------------------------|-3---3---3-3-3---------3--------|
A |-3---3---3-3-3-3---1-1-1---1-1-0|---------------------------5----|
E |--------------------------------|--------------------------------|

G |--------------------------------|--------------------------------|
D |-----------------------------0-1|-3---3---3-3-3------------------|
A |-3---3---3-3-0-1---1-1-1---1----|---------------3^5-3---1---0----|
E |--------------------------------|--------------------------------|

G |--------------------------------|
D |------------------------\5------|
A |--------------------------------|
E |-3-3-3-3-3-3-3-3-3-3-3-3--------|

[00:01] Verse A 4x
[00:24] Bridge
[00:28] Chorus
[00:40] Verse B 2x
[01:04] Bridge
[01:07] Chorus

(Guitar Solo)
[01:20] Verse A 3x and End Of Solo
[01:44] Bridge
[01:47] Chorus

[01:59] Verse C
[02:26] Chorus (Same but only 3 frets upwards, tricky


Therapy? albums
2003 High Anxiety
2001 Shameless
2000 Suicide Pact: You First
1998 Semi-Detached
1995 Infernal Love
1994 Troublegum
1993 Nurse
1993 Born in a crash
Infernal Love tabs
02Stories tabbass tab
03A Moment Of Clarity tabbass tab
05Bowels Of Love tabbass tab
06Misery tabbass tab
09Loose tabbass tab
1130 Seconds tabbass tab

 

1