Search tabs:
Browse artists: 0-9 | A | B | C | D | E | F | G | H | I | J | K | L | M | N | O | P | Q | R | S | T | U | V | W | X | Y | Z
/ Therapy? / Infernal Love (1995) / Misery bass tab

Verse
G |--------------------------------|--------------------------------|
D |--------------------------------|--------------------------------|
A |--------------------------------|--------------------------------|
E |-5-5-3-5------------------------|-3---3---3-3-0-1---0-1-0-1---3--|

Bridge
G |--------------------------------|--------------------------------|
D |--------------------------------|--------------------------------|
A |--------------------------------|-0-0-0-0-0-0-0-0-0-0-0-0-0-3----|
E |-1-1-1-1-1-1-1-1-3-3-3-3-3-3-3-3|-----------------------------3-0|

G |--------------------------------|--------------------------------|
D |--------------------------------|--------------------------------|
A |--------------------------------|-7-7-7-5-7-7-7-5-7-5-7-5-7-5-7-5|
E |-1-1-1-1-1-1-1-1-3-3-3-3-3-3-3-3|--------------------------------|

Chorus
G |--------------------------------|--------------------------------|
D |--------------------------------|--------------------------------|
A |--------------------------------|-0-0-0-0-0-0-0-0-0-0-0-0-0-3----|
E |-1-1-1-1-1-1-1-1-3-3-3-3-3-3-3-3|-----------------------------3-0|

G |--------------------------------|--------------------------------|--------------------------------|
D |--------------------------------|--------------------------------|--------------------------------|
A |--------------------------------|--------------------------------|--------------------------------|
E |-1-1-1-1-1-1-1-1-3-3-3-3-3-3-3-3|-5-5-3-5----3---5-5--3-5-----3--|-5-5-3-5----3---5-5--3-5-----3--|

Mid Part
G |--------------------------------|--------------------------------|
D |--------------------------------|--------------------------------|
A |-3-3-3-3-3-3-3-3-3-3-3-3-3-3-3-3|--------------------------------|
E |--------------------------------|-3-3-3-3-3-3-3-3-3-3-3-3-3-3-3-3|

G |--------------------------------|--------------------------------|
D |--------------------------------|--------------------------------|
A |-0-0-0-0-0-0-0-0-0-0-0-0-0-0-0-0|--------------------------------|
E |--------------------------------|-0-0-0-0-0-0-0-0-0-0-0-0-0-0-0-0|

G |--------------------------------|--------------------------------|
D |--------------------------------|--------------------------------|
A |--------------------------------|-3-3-3-3-3-3-3-3-3-3-3-3-3-3-3-3|
E |-1-1-1-1-1-1-1-1-1-1-1-1-1-1-1-1|--------------------------------|

G |--------------------------------|--------------------------------|
D |--------------------------------|--------------------------------|
A |-0-0-0-0-0-0-0-0----------------|--------------------------------|
E |-----------------3-3-3-3-3-3-3-3|-1-1-1-1-1-1-1-1-1-1-1-1-1-1-1-1|

[00:00] Intro
[00:37] Start with last bar of verse
[00:40] Verse 2x

[00:52] Verse 4x
[01:12] Bridge
[01:23] Chorus
Repeat This

[02:24] Mid Part (*** you waste...)
[02:46] Last Bar of Chorus
[02:52] (Here Comes The Misery)
[02:56] Verse 4x
[03:14] Bridge (Hit notes only 3 times)
[03:26] Chorus


Therapy? albums
2003 High Anxiety
2001 Shameless
2000 Suicide Pact: You First
1998 Semi-Detached
1995 Infernal Love
1994 Troublegum
1993 Nurse
1993 Born in a crash
Infernal Love tabs
02Stories tabbass tab
03A Moment Of Clarity tabbass tab
05Bowels Of Love tabbass tab
06Misery tabbass tab
09Loose tabbass tab
1130 Seconds tabbass tab

 

1