Search tabs:
Browse artists: 0-9 | A | B | C | D | E | F | G | H | I | J | K | L | M | N | O | P | Q | R | S | T | U | V | W | X | Y | Z
/ Therapy? / Infernal Love (1995) / Stories bass tab

Intro Slide
G |--------------------------------|--------------------------------|
D |--------------------------------|--------------------------------|
A |--------------------------------|--------------------------------|
E |--------------------------------|------------------------/10\----|

Verse
G |--------------------------------|--------------------------------|
D |--------------------------------|--------------------------------|
A |---------------1---------------1|---------------1-6-6-6-6-5-5-5-5|
E |-3-3---3-3-1-3---3-3---3-3-1-3--|-3-3-3-3-3-1-3------------------|

Instrumental
G |--------------------------------|--------------------------------|
D |--------------------------------|--------------------------------|
A |--------------------------------|--------------------------------|
E |-0-0---0---0---0-3-0---0---0---0|-6-0---0---0---0-0-2-3---3-4-5--|

Break
G |--------------------------------|--------------------------------|
D |--------------------------------|--------------------------------|
A |--------------------------------|-6---6------------------10\*----| (* 1st Break Slide on A string)
E |-0---0--------------------------|------------------------10\**---| (** 2st Break Slide on E string)
                                                     -------12\***--| (*** 3rd Break Slide on E string)
Chorus
G |--------------------------------|--------------------------------|
D |--------------------------------|--------------------------------|
A |-----------------6-6---6-8-8-8-8|-----------------6-6---6-8-8-8-8
E |-3-3---3-6-6---6----------------|-3-3---3-6-6---6----------------

Guitar Solo
G |--------------------------------|--------------------------------|
D |--------------------------------|---------1-1--------------------|
A |---------6-6---1-3-3---1-1-1-1-3|---------6-----1-3-3---1-1-1-1-3|
E |-3-3---3------------------------|-3-3---3------------------------|


[00:00] Noise/Guitar Intro
[00:25] Intro Slide
[00:30] Verse 2x
[00:41] Instrumental 2x
[00:52] Verse 2x | Break
[01:10] Chorus 2x
[01:22] Verse 2x | Break
[01:38] Chorus 2x
[01:49] (Guitar/Drums)
[02:00] Guitar Solo 2x
[02:11] Instrumental 2x
[02:23] Verse 2x | Break
[02:40] Chorus 4x
[03:03] Chorus one last time
        (Happy People Have No Stories)


Therapy? albums
2003 High Anxiety
2001 Shameless
2000 Suicide Pact: You First
1998 Semi-Detached
1995 Infernal Love
1994 Troublegum
1993 Nurse
1993 Born in a crash
Infernal Love tabs
02Stories tabbass tab
03A Moment Of Clarity tabbass tab
05Bowels Of Love tabbass tab
06Misery tabbass tab
09Loose tabbass tab
1130 Seconds tabbass tab

 

1