Search tabs:
Browse artists: 0-9 | A | B | C | D | E | F | G | H | I | J | K | L | M | N | O | P | Q | R | S | T | U | V | W | X | Y | Z
/ Therapy? / Nurse (1993) / Accelerator bass tab

Main Riff
G |--------------------------------|
D |--------------------------------|
A |--------------------------------|
E |-0---3---0-0-3---0-3-0---3--5---|

Chorus
G |--------------------------------|
D |-----------------------7-5---5--|
A |-5-5-5-5-5-5-5-5-5-5-5-----7----|
E |--------------------------------|


Break
G |--------------------------------|
D |--------------------------------|
A |---------------5---------------5|
E |-0---0---8---7---0---0---8---7--|

[00:00] (No Bass, I think)
[00:07] Main Riff 8x
[00:22] Chorus 1x
[00:26] (Rest)
[00:30] Main Riff 8x
[00:45] Chorus | Main Riff 2x | Chorus
[00:56] Main Riff 12x
[01:18] Chorus | Main Riff 2x | Chorus
[01:29] (Break 2x -Guitar Only)
[01:36] Break 14x
[02:02] Chorus | Main Riff 2x | Chorus


Therapy? albums
2003 High Anxiety
2001 Shameless
2000 Suicide Pact: You First
1998 Semi-Detached
1995 Infernal Love
1994 Troublegum
1993 Nurse
1993 Born in a crash
Nurse tabs
01Nausea tabbass tab
02Teethgrinder tabbass tab
03Disgracelands tabbass tab
04Accelerator tabbass tab
06Perversonality tabbass tab
07Gone tabbass tab
08Zipless tabbass tab
09Deep Sleep tabbass tab
10Hypermania tabbass tab

 

1