Search tabs:
Browse artists: 0-9 | A | B | C | D | E | F | G | H | I | J | K | L | M | N | O | P | Q | R | S | T | U | V | W | X | Y | Z
/ Therapy? / Nurse (1993) / Deep Sleep bass tab

Intro
G |--------------------------------|--------------------------------||
D |--------------------------------|--------------------------------||
A |--------------------------------|--------------------------------||
E |-3-3-3-3-3-4-4------------------|-3-3-3-3-3-4-4------------------|| 2x

Pre-Verse
G |--------------------------------|--------------------------------||
D |--------------------------------|--------------------------------||
A |--------------------------------|--------------------------------||
E |-3-3-3-3-3-4-4---------------3-3|-3-3-3-3-3-4-4---------------3-3|| 2x

Verse
G |--------------------------------|--------------------------------||
D |--------------------------------|--------------------------------||
A |--------------------------------|--------------------------------||
E |-3-3-3-3-3-2-3-4---4---4-3-3-2-2|-3-3-3-3-3-2-3-4---4---4-3-3-2--|| 4x

Instrumental A
G |--------------------------------|--------------------------------||
D |---------2---2------------------|---------2---2------------------||
A |-----------------3-2-0-2--------|-----------------3-2-0-2--------||
E |-0---0---------------------3----|-0---0---------------------5----|| 2x

Instrumental B
G |--------------------------------|--------------------------------||
D |---------2---2------------------|---------2---2------------------||
A |-----------------3-2-0---3-2-0-2|-----------------3-2-0---3-2-0-2||
E |-0---0--------------------------|-0---0--------------------------|| 4x

[00:00] (Guitar)
[00:15] Intro

[00:30] Pre Verse
[00:44] Verse
[01:13] Instrumental A
Repeat This

[02:25] Pre Verse
[02:39] Instrumental B
[03:07] (Guitar/High-hat)

[03:23] Verse
[03:51] Instrumental A
[04:06] Pre-Verse


Therapy? albums
2003 High Anxiety
2001 Shameless
2000 Suicide Pact: You First
1998 Semi-Detached
1995 Infernal Love
1994 Troublegum
1993 Nurse
1993 Born in a crash
Nurse tabs
01Nausea tabbass tab
02Teethgrinder tabbass tab
03Disgracelands tabbass tab
04Accelerator tabbass tab
06Perversonality tabbass tab
07Gone tabbass tab
08Zipless tabbass tab
09Deep Sleep tabbass tab
10Hypermania tabbass tab

 

1