Search tabs:
Browse artists: 0-9 | A | B | C | D | E | F | G | H | I | J | K | L | M | N | O | P | Q | R | S | T | U | V | W | X | Y | Z
/ Therapy? / Nurse (1993) / Disgracelands bass tab

Intro A
G |--------------------------------|--------------------------------||
D |--------------------------------|--------------------------------||
A |-3-----------------------------|(7)-----------------------------||
E |--------------------------------|-0------------------------------|| 4x

Chorus
G |--------------------------------|--------------------------------|
D |---------5-4-2-0---------5-4-2-0|-------------------------5-4-2-0|
A |-3---3-3---------3---3-3--------|---------7-7--------------------|
E |--------------------------------|-0---0-0-------0-0---0-0--------|

G |--------------------------------|--------------------------------|
D |---------5-4-2-0---------5-4-2-0|--------------------------------|
A |-3---3-3---------3---3-3--------|---------7-7-------------3--5?--|
E |--------------------------------|-0---0-0-------0-0---0-0--------|


Intro B
G |--------------------------------|--------------------------------||
D |--------------------------------|--------------------------------||
A |-7---7---------------7---7------|-7---7---------------7---7------||
E |--------------------------------|--------------------------------|| 3x

G |--------------------------------|--------------------------------|
D |--------------------------------|--------------------------------|
A |-7---7---------------7---7------|-7---7---------------7---7/107-|
E |--------------------------------|--------------------------------|

Verse
G |--------------------------------|--------------------------------|
D |--------------------------------|--------------------------------|
A |--------------------------------|-3---3---3----------------------|
E |-0---0---0------3-3--3--3------|-----------------3-3---2--3--5--|

Break
G |--------------------------------|--------------------------------||
D |--------------------------------|--------------------------------||
A |-7-5-7-------5-3-5--------------|-3-2-3--------------------------||
E |--------------------------------|-------------3-2-3--------------|| 4x

G |--------------------------------|--------------------------------|
D |--------------------------------|-2---2---2----------------------|
A |-3---3---3----------------------|--------------------------------|
E |--------------------------------|--------------------------------|

G |--------------------------------|--------------------------------|
D |--------------------------------|--------------------------------|
A |-3---3---3----------------------|--------------------------------|
E |--------------------------------|-0---0---0----------------------|

G |--------------------------------|--------------------------------|
D |-2-2-2---2---2-0-2--------------|--------------------------------|
A |--------------------------------|--------------------------------|
E |--------------------------------|--------------------------------|

Final Chorus (Drum Roll)
G |--------------------------------|--------------------------------|
D |---------5-4-2-0---------5-4-2-0|--------------------------------|
A |-3---3-3---------3---3-3--------|-7--5---7--5---7--5---?------| (Some strange slides)
E |--------------------------------|--------------------------------|

G |--------------------------------|--------------------------------|
D |---------5-4-2-0---------5-4-2-0|--------------------------------|
A |-3---3-3---------3---3-3--------|---------7-7-------------3--5?--|
E |--------------------------------|-0---0-0-------0-0---0-0--------|

Outro
G |--------------------------------|--------------------------------|
D |--------------------------------|--------------------------------|
A |-3---3---3---3-3---3-3-3-3-5----|-7---7---7---7-7---7-7-7-7-7----|
E |--------------------------------|--------------------------------|

G |--------------------------------|--------------------------------|
D |--------------------------------|--------------------------------|
A |-5---5---5---5-5---5-5-5-5-5----|-3---3---3---3-3---3-3-3-3-3----|
E |--------------------------------|--------------------------------|

End
G |--------------------------------|--------------------------------|
D |--------------------------------|--------------------------------|
A |-7-7-7-7---7-7-7----------------|--------------------------------|
E |--------------------------------|--------------------------------|

[00:00] Intro A
[00:22] Chorus 2x
[00:45] Intro B

[01:07] Verse
[01:28] Chorus 2x
Repeat This

[02:34] Break (End with Slide)
[02:55] Chorus
[03:06] Final Chorus
[03:17] Outro (ET loves LSD) 2x
[03:38] End


Therapy? albums
2003 High Anxiety
2001 Shameless
2000 Suicide Pact: You First
1998 Semi-Detached
1995 Infernal Love
1994 Troublegum
1993 Nurse
1993 Born in a crash
Nurse tabs
01Nausea tabbass tab
02Teethgrinder tabbass tab
03Disgracelands tabbass tab
04Accelerator tabbass tab
06Perversonality tabbass tab
07Gone tabbass tab
08Zipless tabbass tab
09Deep Sleep tabbass tab
10Hypermania tabbass tab

 

1