Search tabs:
Browse artists: 0-9 | A | B | C | D | E | F | G | H | I | J | K | L | M | N | O | P | Q | R | S | T | U | V | W | X | Y | Z
/ Therapy? / Nurse (1993) / Gone bass tab

Comments: There seems to be a low C# at the end of the song. So you can tune down your E string to C#. It's not really necescery; you can also use the higher C#, of course. If you have a 5- or 6-string bass. You know where to find that note!

Verse Slide
G |--------------------------------|--------------------------------|
D |--------------------------------|--------------------------------|
A |--------------------------------|-------------------------12\----|
C#|--------------------------------|--------------------------------|

Chorus
G |--------------------------------|--------------------------------||
D |--------------------------------|-------------4---4---4---2--(2)-||
A |-4---4---4---4---4---4---4---4--|-0---0---0----------------------||
C#|--------------------------------|--------------------------------|| 3x

G |--------------------------------|--------------------------------|
D |--------------------------------|-----------------0---0---0---0--|
A |-4---4---4---4---4---4---4---4--|-0---0---0---0------------------|
C#|--------------------------------|--------------------------------|

Post-Chorus
G |--------------------------------|--------------------------------||
D |---------6---------------6------|-----------------0---0---0---0--||
A |-4---4-------4-4-4---4-------4--|-0---0---0---0------------------||
C#|--------------------------------|--------------------------------|| 4x

Mid Part
G |--------------------------------|--------------------------------||
D |--------------------------------|-----------------------------2--||
A |-4---------------------------2--|-0------------------------------||
C#|--------------------------------|--------------------------------|| 3x

G |--------------------------------|--------------------------------|
D |--------------------------------|-----------------7-7-7-7-7-7-7-7| (Soft)
A |-4---------------------------2--|-0------------------------------|
C#|--------------------------------|--------------------------------|

Outro
G |--------------------------------|--------------------------------||
D |--------------------------------|--------------------------------||   (Some notes are left
A |-4-4-4-4-4-4-4-4-4-4-4-4\E-E-E-E|/C-C-C-C-C-C-C-C-C-C-C-C-E-E-E--||     out at the end)
C#|--------------------------------|--------------------------------|| 4x

Finale A
G |--------------------------------|--------------------------------|
D |---------------------2---1---2--|----------2----------2---1---2--|
A |-4------------------------------|-0------------------------------|
C#|--------------------------------|--------------------------------|

G |--------------------------------|--------------------------------|
D |---------------------2---1---2--|---------\4---------------------|
A |-4------------------------------|-0------------------------------|
C#|--------------------------------|--------------------------------|

G |--------------------------------|--------------------------------|
D |--------------------------------|--------------------------------|
A |-0------------------------------|--------------------------------|
C#|--------------------------------|--------------------------------|

Finale B
G |--------------------------------|--------------------------------|
D |--------------------------------|-7---7---7---7---7---7---7---7--|
A |--------------------------------|--------------------------------|
C#|-0---0---0---0---0---0---0---0--|--------------------------------|

G |--------------------------------|--------------------------------|
D |--------------------------------|--------------------------------|
A |--------------------------------|--------------------------------|
C#|-0------------------------------|--------------------------------|

[00:00] (No Bass)
[00:47] Verse Slide

[00:55] Chorus
[01:20] Post-Chorus
[01:45] (Guitar)
Repeat This Part

[03:14] Hit high E (Guitar)
[03:27] Mid Part
[03:53] Chorus (with some double notes)
[04:18] Post-Chorus
[04:43] Outro
[04:xx] (Guitar)
[05:21] Finale A
[05:40] (Psycho Guitar)
[05:46] Finale B


Therapy? albums
2003 High Anxiety
2001 Shameless
2000 Suicide Pact: You First
1998 Semi-Detached
1995 Infernal Love
1994 Troublegum
1993 Nurse
1993 Born in a crash
Nurse tabs
01Nausea tabbass tab
02Teethgrinder tabbass tab
03Disgracelands tabbass tab
04Accelerator tabbass tab
06Perversonality tabbass tab
07Gone tabbass tab
08Zipless tabbass tab
09Deep Sleep tabbass tab
10Hypermania tabbass tab

 

1