Search tabs:
Browse artists: 0-9 | A | B | C | D | E | F | G | H | I | J | K | L | M | N | O | P | Q | R | S | T | U | V | W | X | Y | Z
/ Therapy? / Nurse (1993) / Perversonality bass tab

Intro
G |--------------------------------|--------------------------------|
D |--------------------------------|--------------------------------|
A |--------------------------------|--------------------------------|
E |--------------------------------|-------------------------12\----|

G |--------------------------------|--------------------------------|
D |--------------------------------|--------------------------------|
A |--------------------------------|--------------------------------|
E |-0------------------------------|--------------------------------|

Chorus
G |--------------------------------|--------------------------------|
D |--------------------------------|--------------------------------|
A |-7-7-7-7---------7-7-7-7--------|-7-7-7-7---------7-7-7-7--------|
E |---------0---0-----------0---0--|---------0---0-----------1---1--|

Verse
G |--------------------------------|--------------------------------|
D |-0-2-2-2-2-2-2-0-2-2-2-2-2-2-2-2|-0-2-2-2-2-2-2-0-2-2-2---3---3--|
A |--------------------------------|--------------------------------|
D |--------------------------------|--------------------------------|

Bridge
G |--------------------------------|--------------------------------|
D |--------------------------------|--------------------------------|
A |--------------------------------|--------------------------------|
E |-5---5---5-5-5---4---4-4--------|-0---0---0-0-0---1---1-1--------|

Break
G |--------------------------------|--------------------------------|
D |-0-2-2-2-0-2-2-2-0-2-2-3-^-2----|-0-2-2-2-0-2-2-2-0-2-2-2--------|
A |--------------------------------|--------------------------------|
E |--------------------------------|--------------------------------|

Outro
G |--------------------------------|--------------------------------|
D |-0-2-2-2-2-2-2-0-2-2-2-2-2-2-2-2|-0-2-2-2-2-2-2-3-3-3-3---3---0--|
A |--------------------------------|--------------------------------|
D |--------------------------------|--------------------------------|

Last Note
G |--------------------------------|--------------------------------|
D |--------------------------------|--------------------------------|
A |-7------------------------------|--------------------------------|
E |--------------------------------|--------------------------------|

[00:00] Intro
[00:08] Chorus 4x

[00:17] Verse 4x
[00:33] Bridge 4x
[00:49] Chorus
Repeat this

[01:55] (Drums)
[02:04] Break 6x (Make it sound a bit fuzzy and very hollow)
[02:28] Chorus 4x
[02:45] (Guitar)
[02:49] Chorus with breaks 4x
[03:02] Chorus 4x
[03:19] Outro 4x | Last Note


Therapy? albums
2003 High Anxiety
2001 Shameless
2000 Suicide Pact: You First
1998 Semi-Detached
1995 Infernal Love
1994 Troublegum
1993 Nurse
1993 Born in a crash
Nurse tabs
01Nausea tabbass tab
02Teethgrinder tabbass tab
03Disgracelands tabbass tab
04Accelerator tabbass tab
06Perversonality tabbass tab
07Gone tabbass tab
08Zipless tabbass tab
09Deep Sleep tabbass tab
10Hypermania tabbass tab

 

1