Search tabs:
Browse artists: 0-9 | A | B | C | D | E | F | G | H | I | J | K | L | M | N | O | P | Q | R | S | T | U | V | W | X | Y | Z
/ Therapy? / Nurse (1993) / Zipless bass tab

Verse A
G |--------------------------------|--------------------------------|
D |--------------------------------|--------------------------------|
A |-3---------------------------3--|-3-3-------------------------3--|
E |-----5---5---3-5---3-3---5------|-----5---5---3-5---3-3---5------|

Chorus
G |--------------------------------|--------------------------------|
D |-----------------------------6--|-------------------------6-6----|
A |-7---7---7---7-7---7-7-7-5-5----|-7---7---7---7-7---7-7-7-----7--|
E |--------------------------------|--------------------------------|

G |--------------------------------|--------------------------------|
D |-----------------------------6--|--------------------------------|
A |-7---7---7---7-7---7-7-7-5-5----|-7---7---7---7-7---7-5---3---2--|
E |--------------------------------|--------------------------------|

Mid Part
G |--------------------------------|--------------------------------|
D |--------------------------------|----------------------------\7--|
A |-------3---3-----------3---5----|-------3---3-----------3--------|
E |-5---5---5-----5-5-5------------|-5---5---5-----5-5-5------------|

[00:00] Verse 3x
[00:27] Chorus
Repeat This

[01:13] Verse 1x
[01:21] Mid Part 4x (Last time don't continue last bar)
[01:39] Chorus
[01:48] Verse 3x
[02:15] Chorus (Again Stop at last bar)
[02:24] Chorus
[02:33] Verse 2x (Take the last bar)


Therapy? albums
2003 High Anxiety
2001 Shameless
2000 Suicide Pact: You First
1998 Semi-Detached
1995 Infernal Love
1994 Troublegum
1993 Nurse
1993 Born in a crash
Nurse tabs
01Nausea tabbass tab
02Teethgrinder tabbass tab
03Disgracelands tabbass tab
04Accelerator tabbass tab
06Perversonality tabbass tab
07Gone tabbass tab
08Zipless tabbass tab
09Deep Sleep tabbass tab
10Hypermania tabbass tab

 

1